  0
SECTION
  2
HEADER
  9
$ACADVER
  1
AC1015
  9
$ACADMAINTVER
 70
     6
  9
$DWGCODEPAGE
  3
DOS850
  9
$INSBASE
 10
0.0
 20
0.0
 30
0.0
  9
$EXTMIN
 10
-373.1021
 20
-571.5074
 30
1.000000E+20
  9
$EXTMAX
 10
399.8764
 20
539.1484
 30
-1.000000E+20
  9
$LIMMIN
 10
0.0
 20
0.0
  9
$LIMMAX
 10
0.0
 20
0.0
  9
$ORTHOMODE
 70
     0
  9
$REGENMODE
 70
     1
  9
$FILLMODE
 70
     1
  9
$QTEXTMODE
 70
     0
  9
$MIRRTEXT
 70
     1
  9
$LTSCALE
 40
1.0
  9
$ATTMODE
 70
     1
  9
$TEXTSIZE
 40
0.2
  9
$TRACEWID
 40
0.05
  9
$TEXTSTYLE
  7
Standard
  9
$CLAYER
  8
0
  9
$CELTYPE
  6
Continuous
  9
$CECOLOR
 62
   256
  9
$CELTSCALE
 40
1.0
  9
$DISPSILH
 70
     0
  9
$DIMSCALE
 40
1.0
  9
$DIMASZ
 40
0.18
  9
$DIMEXO
 40
0.0625
  9
$DIMDLI
 40
0.38
  9
$DIMRND
 40
0.0
  9
$DIMDLE
 40
0.0
  9
$DIMEXE
 40
0.18
  9
$DIMTP
 40
0.0
  9
$DIMTM
 40
0.0
  9
$DIMTXT
 40
0.18
  9
$DIMCEN
 40
0.09
  9
$DIMTSZ
 40
0.0
  9
$DIMTOL
 70
     0
  9
$DIMLIM
 70
     0
  9
$DIMTIH
 70
     1
  9
$DIMTOH
 70
     1
  9
$DIMSE1
 70
     0
  9
$DIMSE2
 70
     0
  9
$DIMTAD
 70
     0
  9
$DIMZIN
 70
     0
  9
$DIMBLK
  1

  9
$DIMASO
 70
     1
  9
$DIMSHO
 70
     1
  9
$DIMPOST
  1

  9
$DIMAPOST
  1

  9
$DIMALT
 70
     0
  9
$DIMALTD
 70
     2
  9
$DIMALTF
 40
25.4
  9
$DIMLFAC
 40
1.0
  9
$DIMTOFL
 70
     0
  9
$DIMTVP
 40
0.0
  9
$DIMTIX
 70
     0
  9
$DIMSOXD
 70
     0
  9
$DIMSAH
 70
     0
  9
$DIMBLK1
  1

  9
$DIMBLK2
  1

  9
$DIMSTYLE
  2
Standard
  9
$DIMCLRD
 70
     0
  9
$DIMCLRE
 70
     0
  9
$DIMCLRT
 70
     0
  9
$DIMTFAC
 40
1.0
  9
$DIMGAP
 40
0.09
  9
$DIMJUST
 70
     0
  9
$DIMSD1
 70
     0
  9
$DIMSD2
 70
     0
  9
$DIMTOLJ
 70
     1
  9
$DIMTZIN
 70
     0
  9
$DIMALTZ
 70
     0
  9
$DIMALTTZ
 70
     0
  9
$DIMUPT
 70
     0
  9
$DIMDEC
 70
     4
  9
$DIMTDEC
 70
     4
  9
$DIMALTU
 70
     2
  9
$DIMALTTD
 70
     2
  9
$DIMTXSTY
  7
Standard
  9
$DIMAUNIT
 70
     0
  9
$DIMADEC
 70
     0
  9
$DIMALTRND
 40
0.0
  9
$DIMAZIN
 70
     0
  9
$DIMDSEP
 70
     0
  9
$DIMATFIT
 70
     3
  9
$DIMFRAC
 70
     0
  9
$DIMLDRBLK
  1

  9
$DIMLUNIT
 70
     2
  9
$DIMLWD
 70
     0
  9
$DIMLWE
 70
     0
  9
$DIMTMOVE
 70
     0
  9
$LUNITS
 70
     2
  9
$LUPREC
 70
     4
  9
$SKETCHINC
 40
0.1
  9
$FILLETRAD
 40
0.0
  9
$AUNITS
 70
     0
  9
$AUPREC
 70
     0
  9
$MENU
  1
acad
  9
$ELEVATION
 40
0.0
  9
$PELEVATION
 40
0.0
  9
$THICKNESS
 40
0.0
  9
$LIMCHECK
 70
     0
  9
$CHAMFERA
 40
0.0
  9
$CHAMFERB
 40
0.0
  9
$CHAMFERC
 40
0.0
  9
$CHAMFERD
 40
0.0
  9
$SKPOLY
 70
     0
  9
$TDCREATE
 40
0.000000000
  9
$TDUCREATE
 40
0.000000000
  9
$TDUPDATE
 40
0.000000000
  9
$TDUUPDATE
 40
0.000000000
  9
$TDINDWG
 40
0.0000000000
  9
$TDUSRTIMER
 40
0.0000000000
  9
$USRTIMER
 70
     1
  9
$ANGBASE
 50
0.0
  9
$ANGDIR
 70
     0
  9
$PDMODE
 70
     0
  9
$PDSIZE
 40
0.0
  9
$PLINEWID
 40
0.0
  9
$SPLFRAME
 70
     0
  9
$SPLINETYPE
 70
     6
  9
$SPLINESEGS
 70
     8
  9
$HANDSEED
  5
C4
  9
$SURFTAB1
 70
     6
  9
$SURFTAB2
 70
     6
  9
$SURFTYPE
 70
     6
  9
$SURFU
 70
     6
  9
$SURFV
 70
     6
  9
$UCSBASE
  2

  9
$UCSNAME
  2

  9
$UCSORG
 10
0.0
 20
0.0
 30
0.0
  9
$UCSXDIR
 10
1.0
 20
0.0
 30
0.0
  9
$UCSYDIR
 10
0.0
 20
1.0
 30
0.0
  9
$UCSORTHOREF
  2

  9
$UCSORTHOVIEW
 70
     0
  9
$UCSORGTOP
 10
0.0
 20
0.0
 30
0.0
  9
$UCSORGBOTTOM
 10
0.0
 20
0.0
 30
0.0
  9
$UCSORGLEFT
 10
0.0
 20
0.0
 30
0.0
  9
$UCSORGRIGHT
 10
0.0
 20
0.0
 30
0.0
  9
$UCSORGFRONT
 10
0.0
 20
0.0
 30
0.0
  9
$UCSORGBACK
 10
0.0
 20
0.0
 30
0.0
  9
$PUCSBASE
  2

  9
$PUCSNAME
  2

  9
$PUCSORG
 10
0.0
 20
0.0
 30
0.0
  9
$PUCSXDIR
 10
1.0
 20
0.0
 30
0.0
  9
$PUCSYDIR
 10
0.0
 20
1.0
 30
0.0
  9
$PUCSORTHOREF
  2

  9
$PUCSORTHOVIEW
 70
     0
  9
$PUCSORGTOP
 10
0.0
 20
0.0
 30
0.0
  9
$PUCSORGBOTTOM
 10
0.0
 20
0.0
 30
0.0
  9
$PUCSORGLEFT
 10
0.0
 20
0.0
 30
0.0
  9
$PUCSORGRIGHT
 10
0.0
 20
0.0
 30
0.0
  9
$PUCSORGFRONT
 10
0.0
 20
0.0
 30
0.0
  9
$PUCSORGBACK
 10
0.0
 20
0.0
 30
0.0
  9
$USERI1
 70
     0
  9
$USERI2
 70
     0
  9
$USERI3
 70
     0
  9
$USERI4
 70
     0
  9
$USERI5
 70
     0
  9
$USERR1
 40
0.0
  9
$USERR2
 40
0.0
  9
$USERR3
 40
0.0
  9
$USERR4
 40
0.0
  9
$USERR5
 40
0.0
  9
$WORLDVIEW
 70
     1
  9
$SHADEDGE
 70
     3
  9
$SHADEDIF
 70
    70
  9
$TILEMODE
 70
     1
  9
$MAXACTVP
 70
    16
  9
$PINSBASE
 10
0.0
 20
0.0
 30
0.0
  9
$PLIMCHECK
 70
     0
  9
$PEXTMIN
 10
1.000000E+20
 20
1.000000E+20
 30
1.000000E+20
  9
$PEXTMAX
 10
-1.000000E+20
 20
-1.000000E+20
 30
-1.000000E+20
  9
$PLIMMIN
 10
0.0
 20
0.0
  9
$PLIMMAX
 10
12.0
 20
9.0
  9
$UNITMODE
 70
     0
  9
$VISRETAIN
 70
     0
  9
$PLINEGEN
 70
     1
  9
$PSLTSCALE
 70
     0
  9
$TREEDEPTH
 70
  3020
  9
$CMLSTYLE
  2
Standard
  9
$CMLJUST
 70
     0
  9
$CMLSCALE
 40
1.0
  9
$PROXYGRAPHICS
 70
     0
  9
$MEASUREMENT
 70
     0
  9
$CELWEIGHT
370
     0
  9
$ENDCAPS
280
     0
  9
$JOINSTYLE
280
     0
  9
$LWDISPLAY
290
     0
  9
$INSUNITS
 70
     4
  9
$HYPERLINKBASE
  1

  9
$XEDIT
290
     1
  9
$CEPSNTYPE
380
     0
  9
$PSTYLEMODE
290
     1
  9
$FINGERPRINTGUID
  2

  9
$VERSIONGUID
  2

  9
$EXTNAMES
290
     1
  9
$PSVPSCALE
 40
0.0
  0
ENDSEC
  0
SECTION
  2
CLASSES
  0
CLASS
  1
LWPOLYLINE
  2
AcDbPolyline
  3
AutoCAD 2000
 90
    32768
280
     0
281
     1
  0
CLASS
  1
IMAGE
  2
AcDbRasterImage
  3
ISM
 90
    32895
280
     0
281
     1
  0
CLASS
  1
OLE2FRAME
  2
AcDbOle2Frame
  3
AutoCAD 2000
 90
    32768
280
     0
281
     1
  0
CLASS
  1
HATCH
  2
AcDbHatch
  3
AutoCAD 2000
 90
    32768
280
     0
281
     1
  0
CLASS
  1
DICTIONARYVAR
  2
AcDbDictionaryVar
  3
AutoCAD 2000
 90
    32768
280
     0
281
     0
  0
CLASS
  1
RASTERVARIABLES
  2
AcDbRasterVariables
  3
ISM
 90
    32768
280
     0
281
     0
  0
CLASS
  1
IMAGEDEF
  2
AcDbRasterImageDef
  3
ISM
 90
    32768
280
     0
281
     0
  0
CLASS
  1
IMAGEDEF_REACTOR
  2
AcDbRasterImageDefReactor
  3
ISM
 90
    32769
280
     0
281
     0
  0
CLASS
  1
IDBUFFER
  2
AcDbIdBuffer
  3
AutoCAD 2000
 90
    32768
280
     0
281
     0
  0
CLASS
  1
SPATIAL_FILTER
  2
AcDbSpatialFilter
  3
AutoCAD 2000
 90
    32768
280
     0
281
     0
  0
CLASS
  1
XRECORD
  2
AcDbXrecord
  3
AutoCAD 2000
 90
    32768
280
     0
281
     0
  0
CLASS
  1
SORTENTSTABLE
  2
AcDbSortentsTable
  3
AutoCAD 2000
 90
    32768
280
     0
281
     0
  0
CLASS
  1
LAYER_INDEX
  2
AcDbLayerIndex
  3
AutoCAD 2000
 90
    32768
280
     0
281
     0
  0
CLASS
  1
SPATIAL_INDEX
  2
AcDbSpatialIndex
  3
AutoCAD 2000
 90
    32768
280
     0
281
     0
  0
CLASS
  1
OBJECT_PTR
  2
CAseDLPNTableRecord
  3
"ASE-LPNTableRecord"
 90
    32769
280
     0
281
     0
  0
CLASS
  1
LAYOUT
  2
AcDbLayout
  3
AutoCAD 2000
 90
        0
280
     0
281
     0
  0
CLASS
  1
PLOTSETTINGS
  2
AcDbPlotSettings
  3
AutoCAD 2000
 90
    32768
280
     0
281
     0
  0
CLASS
  1
ACDBDICTIONARYWDFLT
  2
AcDbDictionaryWithDefault
  3
AutoCAD 2000
 90
        0
280
     0
281
     0
  0
CLASS
  1
ACDBPLACEHOLDER
  2
AcDbPlaceHolder
  3
AutoCAD 2000
 90
        0
280
     0
281
     0
  0
CLASS
  1
VBA_PROJECT
  2
AcDbVbaProject
  3
acadvba
 90
    32768
280
     0
281
     0
  0
CLASS
  1
WIPEOUT
  2
AcDbWipeout
  3
WipeOut|AutoCAD Express Tool|expresstools@autodesk.com
 90
    32895
280
     0
281
     1
  0
CLASS
  1
WIPEOUTVARIABLES
  2
AcDbWipeoutVariables
  3
WipeOut|AutoCAD Express Tool|expresstools@autodesk.com
 90
        0
280
     0
281
     0
  0
CLASS
  1
RTEXT
  2
RText
  3
RText|AutoCAD Express Tool|expresstools@autodesk.com
 90
    32768
280
     0
281
     1
  0
CLASS
  1
ARCALIGNEDTEXT
  2
AcDbArcAlignedText
  3
ATEXT|AutoCAD Express Tool|expresstools@autodesk.com
 90
    32768
280
     0
281
     1
  0
ENDSEC
  0
SECTION
  2
TABLES
  0
TABLE
  2
VPORT
  5
7
100
AcDbSymbolTable
 70
     1
  0
VPORT
  5
15
100
AcDbSymbolTableRecord
100
AcDbViewportTableRecord
  2
*ACTIVE
 70
     0
 10
0.0
 20
0.0
 11
1.0
 21
1.0
 12
6.591288
 22
4.579184
 13
0.0
 23
0.0
 14
1.0
 24
1.0
 15
0.0
 25
0.0
 16
0.0
 26
0.0
 36
1.0
 17
0.0
 27
0.0
 37
0.0
 40
9.158369
 41
0.688564
 42
50.0
 43
0.0
 44
0.0
 50
0.0
 51
0.0
 71
     0
 72
   100
 73
     1
 74
     1
 75
     0
 76
     0
 77
     0
 78
     0
281
     0
 65
     0
110
0.0
120
0.0
130
0.0
111
1.0
121
0.0
131
0.0
112
0.0
122
1.0
132
0.0
345
0
346
0
 79
     0
146
0.0
  0
ENDTAB
  0
TABLE
  2
LTYPE
  5
4
100
AcDbSymbolTable
 70
     3
  0
LTYPE
  5
11
100
AcDbSymbolTableRecord
100
AcDbLinetypeTableRecord
  2
ByBlock
 70
    64
  3

 72
    65
 73
     0
 40
0.0
  0
LTYPE
  5
12
100
AcDbSymbolTableRecord
100
AcDbLinetypeTableRecord
  2
ByLayer
 70
    64
  3

 72
    65
 73
     0
 40
0.0
  0
LTYPE
  5
13
100
AcDbSymbolTableRecord
100
AcDbLinetypeTableRecord
  2
Continuous
 70
    64
  3
Solid line
 72
    65
 73
     0
 40
0.0
  0
ENDTAB
  0
TABLE
  2
LAYER
  5
2
100
AcDbSymbolTable
 70
     2
  0
LAYER
  5
14
100
AcDbSymbolTableRecord
100
AcDbLayerTableRecord
  2
0
 70
     0
 62
     7
  6
Continuous
290
     1
370
    -3
390
1D
  0
LAYER
  5
24
100
AcDbSymbolTableRecord
100
AcDbLayerTableRecord
  2
Ebene 1
 70
     0
 62
     7
  6
Continuous
290
     1
370
    -3
390
1F
  0
ENDTAB
  0
TABLE
  2
STYLE
  5
3
100
AcDbSymbolTable
 70
     1
  0
STYLE
  5
17
100
AcDbSymbolTableRecord
100
AcDbTextStyleTableRecord
  2
Standard
 70
     0
 40
0.0
 41
1.0
 50
0.0
 71
     0
 42
0.0
  3
txt
  4

  0
ENDTAB
  0
TABLE
  2
VIEW
  5
5
100
AcDbSymbolTable
 70
     0
  0
ENDTAB
  0
TABLE
  2
UCS
  5
6
100
AcDbSymbolTable
 70
     0
  0
ENDTAB
  0
TABLE
  2
APPID
  5
8
100
AcDbSymbolTable
 70
     1
  0
APPID
  5
16
100
AcDbSymbolTableRecord
100
AcDbRegAppTableRecord
  2
ACAD
 70
     0
  0
ENDTAB
  0
TABLE
  2
DIMSTYLE
  5
9
100
AcDbSymbolTable
 70
     1
100
AcDbDimStyleTable
 71
     0
  0
DIMSTYLE
105
18
100
AcDbSymbolTableRecord
100
AcDbDimStyleTableRecord
  2
Standard
 70
     0
  3

  4

 40
1.0
 41
0.18
 42
0.0625
 43
0.38
 44
0.18
 45
0.0
 46
0.0
 47
0.0
 48
0.0
 71
     0
 72
     0
 73
     1
 74
     1
 75
     0
 76
     0
 77
     0
 78
     0
 79
     0
140
0.18
141
0.09
142
0.0
143
25.4
144
1.0
145
0.0
146
1.0
147
0.09
148
0.0
170
     0
171
     2
172
     0
173
     0
174
     0
175
     0
176
     0
177
     0
178
     0
179
     0
271
     4
272
     4
273
     2
274
     2
275
     0
276
     0
277
     2
278
    46
279
     0
280
     0
281
     0
282
     0
283
     1
284
     0
285
     0
286
     0
288
     0
340
17
341
0
342
0
343
0
344
0
371
    -2
372
    -2
  0
ENDTAB
  0
TABLE
  2
BLOCK_RECORD
  5
1
100
AcDbSymbolTable
 70
     0
  0
BLOCK_RECORD
  5
A
100
AcDbSymbolTableRecord
100
AcDbBlockTableRecord
  2
*MODEL_SPACE
340
20
  0
BLOCK_RECORD
  5
B
100
AcDbSymbolTableRecord
100
AcDbBlockTableRecord
  2
*PAPER_SPACE
340
21
  0
ENDTAB
  0
ENDSEC
  0
SECTION
  2
BLOCKS
  0
BLOCK
  5
D
100
AcDbEntity
  8
0
100
AcDbBlockBegin
  2
*MODEL_SPACE
 70
     0
 10
0.0
 20
0.0
 30
0.0
  3
*MODEL_SPACE
  1

  0
ENDBLK
  5
E
100
AcDbEntity
  8
0
100
AcDbBlockEnd
  0
BLOCK
  5
F
100
AcDbEntity
 67
     1
  8
0
100
AcDbBlockBegin
  2
*PAPER_SPACE
 70
     0
 10
0.0
 20
0.0
 30
0.0
  3
*PAPER_SPACE
  1

  0
ENDBLK
  5
10
100
AcDbEntity
 67
     1
  8
0
100
AcDbBlockEnd
  0
ENDSEC
  0
SECTION
  2
ENTITIES
  0
SPLINE
  5
25
100
AcDbEntity
  8
Ebene 1
370
     5
100
AcDbSpline
210
0.0
220
0.0
230
1.0
 70
     1
 71
     3
 72
    20
 73
    16
 74
     0
 42
0.0000000001
 43
0.0000000001
 40
0.0
 40
0.0
 40
0.0
 40
0.0
 40
0.25
 40
0.25
 40
0.25
 40
0.25
 40
0.5
 40
0.5
 40
0.5
 40
0.5
 40
0.75
 40
0.75
 40
0.75
 40
0.75
 40
1.0
 40
1.0
 40
1.0
 40
1.0
 10
-215.441
 20
40.713999999999999
 30
0.0
 10
-215.441
 20
40.713999999999999
 30
0.0
 10
204.559
 20
37.213999999999999
 30
0.0
 10
204.559
 20
37.213999999999999
 30
0.0
 10
204.559
 20
37.213999999999999
 30
0.0
 10
204.559
 20
37.213999999999999
 30
0.0
 10
174.559
 20
-11.036000000000001
 30
0.0
 10
174.559
 20
-11.036000000000001
 30
0.0
 10
174.559
 20
-11.036000000000001
 30
0.0
 10
174.559
 20
-11.036000000000001
 30
0.0
 10
-175.441
 20
-13.9526
 30
0.0
 10
-175.441
 20
-13.9526
 30
0.0
 10
-175.441
 20
-13.9526
 30
0.0
 10
-175.441
 20
-13.9526
 30
0.0
 10
-215.441
 20
40.713999999999999
 30
0.0
 10
-215.441
 20
40.713999999999999
 30
0.0
  0
SPLINE
  5
26
100
AcDbEntity
  8
Ebene 1
370
     5
100
AcDbSpline
210
0.0
220
0.0
230
1.0
 70
     1
 71
     3
 72
    48
 73
    44
 74
     0
 42
0.0000000001
 43
0.0000000001
 40
0.0
 40
0.0
 40
0.0
 40
0.0
 40
0.0909090909090909
 40
0.0909090909090909
 40
0.0909090909090909
 40
0.0909090909090909
 40
0.1818181818181818
 40
0.1818181818181818
 40
0.1818181818181818
 40
0.1818181818181818
 40
0.2727272727272727
 40
0.2727272727272727
 40
0.2727272727272727
 40
0.2727272727272727
 40
0.3636363636363637
 40
0.3636363636363637
 40
0.3636363636363637
 40
0.3636363636363637
 40
0.4545454545454546
 40
0.4545454545454546
 40
0.4545454545454546
 40
0.4545454545454546
 40
0.5454545454545455
 40
0.5454545454545455
 40
0.5454545454545455
 40
0.5454545454545455
 40
0.6363636363636365
 40
0.6363636363636365
 40
0.6363636363636365
 40
0.6363636363636365
 40
0.7272727272727274
 40
0.7272727272727274
 40
0.7272727272727274
 40
0.7272727272727274
 40
0.8181818181818183
 40
0.8181818181818183
 40
0.8181818181818183
 40
0.8181818181818183
 40
0.9090909090909093
 40
0.9090909090909093
 40
0.9090909090909093
 40
0.9090909090909093
 40
1.0
 40
1.0
 40
1.0
 40
1.0
 10
257.97570000000002
 20
276.24119999999999
 30
0.0
 10
257.97570000000002
 20
276.24119999999999
 30
0.0
 10
284.6087
 20
250.35650000000001
 30
0.0
 10
284.6087
 20
250.35650000000001
 30
0.0
 10
284.6087
 20
250.35650000000001
 30
0.0
 10
284.6087
 20
250.35650000000001
 30
0.0
 10
284.63440000000003
 20
216.2277
 30
0.0
 10
284.63440000000003
 20
216.2277
 30
0.0
 10
284.63440000000003
 20
216.2277
 30
0.0
 10
284.63440000000003
 20
216.2277
 30
0.0
 10
324.46370000000002
 20
219.35910000000001
 30
0.0
 10
324.46370000000002
 20
219.35910000000001
 30
0.0
 10
324.46370000000002
 20
219.35910000000001
 30
0.0
 10
324.46370000000002
 20
219.35910000000001
 30
0.0
 10
324.54430000000002
 20
218.36190000000002
 30
0.0
 10
324.54430000000002
 20
218.36190000000002
 30
0.0
 10
324.54430000000002
 20
218.36190000000002
 30
0.0
 10
324.54430000000002
 20
218.36190000000002
 30
0.0
 10
284.6352
 20
215.09550000000002
 30
0.0
 10
284.6352
 20
215.09550000000002
 30
0.0
 10
284.6352
 20
215.09550000000002
 30
0.0
 10
284.6352
 20
215.09550000000002
 30
0.0
 10
284.73020000000002
 20
89.618600000000001
 30
0.0
 10
284.73020000000002
 20
89.618600000000001
 30
0.0
 10
284.73020000000002
 20
89.618600000000001
 30
0.0
 10
284.73020000000002
 20
89.618600000000001
 30
0.0
 10
342.09500000000003
 20
90.1387
 30
0.0
 10
342.09500000000003
 20
90.1387
 30
0.0
 10
342.09500000000003
 20
90.1387
 30
0.0
 10
359.55590000000001
 20
91.409300000000002
 30
0.0
 10
381.12880000000001
 20
106.12050000000001
 30
0.0
 10
377.70120000000003
 20
121.5528
 30
0.0
 10
377.70120000000003
 20
121.5528
 30
0.0
 10
371.25800000000004
 20
153.13160000000002
 30
0.0
 10
364.91660000000002
 20
186.3648
 30
0.0
 10
361.73480000000001
 20
270.8827
 30
0.0
 10
361.73480000000001
 20
270.8827
 30
0.0
 10
360.13010000000003
 20
279.24420000000003
 30
0.0
 10
357.95550000000003
 20
293.40160000000003
 30
0.0
 10
348.05590000000001
 20
296.65110000000004
 30
0.0
 10
348.05590000000001
 20
296.65110000000004
 30
0.0
 10
316.27840000000003
 20
304.47030000000001
 30
0.0
 10
289.90870000000001
 20
297.84880000000004
 30
0.0
 10
257.97570000000002
 20
276.24119999999999
 30
0.0
  0
SPLINE
  5
27
100
AcDbEntity
  8
Ebene 1
370
     5
 62
     7
100
AcDbSpline
210
0.0
220
0.0
230
1.0
 70
     1
 71
     3
 72
    20
 73
    16
 74
     0
 42
0.0000000001
 43
0.0000000001
 40
0.0
 40
0.0
 40
0.0
 40
0.0
 40
0.25
 40
0.25
 40
0.25
 40
0.25
 40
0.5
 40
0.5
 40
0.5
 40
0.5
 40
0.75
 40
0.75
 40
0.75
 40
0.75
 40
1.0
 40
1.0
 40
1.0
 40
1.0
 10
-348.06350000000003
 20
431.09910000000002
 30
0.0
 10
-348.06350000000003
 20
431.09910000000002
 30
0.0
 10
-323.06350000000003
 20
431.09910000000002
 30
0.0
 10
-323.06350000000003
 20
431.09910000000002
 30
0.0
 10
-323.06350000000003
 20
431.09910000000002
 30
0.0
 10
-323.06350000000003
 20
431.09910000000002
 30
0.0
 10
-323.06350000000003
 20
428.09870000000001
 30
0.0
 10
-323.06350000000003
 20
428.09870000000001
 30
0.0
 10
-323.06350000000003
 20
428.09870000000001
 30
0.0
 10
-323.06350000000003
 20
428.09870000000001
 30
0.0
 10
-348.06350000000003
 20
428.09870000000001
 30
0.0
 10
-348.06350000000003
 20
428.09870000000001
 30
0.0
 10
-348.06350000000003
 20
428.09870000000001
 30
0.0
 10
-348.06350000000003
 20
428.09870000000001
 30
0.0
 10
-348.06350000000003
 20
431.09910000000002
 30
0.0
 10
-348.06350000000003
 20
431.09910000000002
 30
0.0
  0
SPLINE
  5
28
100
AcDbEntity
  8
Ebene 1
370
     5
100
AcDbSpline
210
0.0
220
0.0
230
1.0
 70
     0
 71
     3
 72
    12
 73
     8
 74
     0
 42
0.0000000001
 43
0.0000000001
 40
0.0
 40
0.0
 40
0.0
 40
0.0
 40
0.5
 40
0.5
 40
0.5
 40
0.5
 40
1.0
 40
1.0
 40
1.0
 40
1.0
 10
-125.93260000000001
 20
346.19460000000004
 30
0.0
 10
-125.93260000000001
 20
346.19460000000004
 30
0.0
 10
-89.193100000000001
 20
346.19540000000001
 30
0.0
 10
-89.193100000000001
 20
346.19540000000001
 30
0.0
 10
-89.193100000000001
 20
346.19540000000001
 30
0.0
 10
-89.193100000000001
 20
346.19540000000001
 30
0.0
 10
-84.336300000000008
 20
346.19550000000004
 30
0.0
 10
-84.336300000000008
 20
346.19550000000004
 30
0.0
  0
SPLINE
  5
29
100
AcDbEntity
  8
Ebene 1
370
     5
100
AcDbSpline
210
0.0
220
0.0
230
1.0
 70
     0
 71
     3
 72
    12
 73
     8
 74
     0
 42
0.0000000001
 43
0.0000000001
 40
0.0
 40
0.0
 40
0.0
 40
0.0
 40
0.5
 40
0.5
 40
0.5
 40
0.5
 40
1.0
 40
1.0
 40
1.0
 40
1.0
 10
-125.93260000000001
 20
343.19420000000002
 30
0.0
 10
-125.93260000000001
 20
343.19420000000002
 30
0.0
 10
-125.93260000000001
 20
345.84430000000003
 30
0.0
 10
-125.93260000000001
 20
345.84430000000003
 30
0.0
 10
-125.93260000000001
 20
345.84430000000003
 30
0.0
 10
-125.93260000000001
 20
345.84430000000003
 30
0.0
 10
-125.93260000000001
 20
346.19460000000004
 30
0.0
 10
-125.93260000000001
 20
346.19460000000004
 30
0.0
  0
SPLINE
  5
2A
100
AcDbEntity
  8
Ebene 1
370
     5
100
AcDbSpline
210
0.0
220
0.0
230
1.0
 70
     0
 71
     3
 72
     8
 73
     4
 74
     0
 42
0.0000000001
 43
0.0000000001
 40
0.0
 40
0.0
 40
0.0
 40
0.0
 40
1.0
 40
1.0
 40
1.0
 40
1.0
 10
-97.700000000000003
 20
481.51440000000002
 30
0.0
 10
-26.701000000000001
 20
484.28890000000001
 30
0.0
 10
30.7348
 20
540.07860000000005
 30
0.0
 10
169.69130000000001
 20
503.9271
 30
0.0
  0
SPLINE
  5
2B
100
AcDbEntity
  8
Ebene 1
370
     5
100
AcDbSpline
210
0.0
220
0.0
230
1.0
 70
     0
 71
     3
 72
    12
 73
     8
 74
     0
 42
0.0000000001
 43
0.0000000001
 40
0.0
 40
0.0
 40
0.0
 40
0.0
 40
0.5
 40
0.5
 40
0.5
 40
0.5
 40
1.0
 40
1.0
 40
1.0
 40
1.0
 10
373.06350000000003
 20
352.49580000000003
 30
0.0
 10
373.06350000000003
 20
352.49580000000003
 30
0.0
 10
372.7593
 20
513.23210000000006
 30
0.0
 10
372.7593
 20
513.23210000000006
 30
0.0
 10
372.7593
 20
513.23210000000006
 30
0.0
 10
372.7593
 20
513.23210000000006
 30
0.0
 10
346.12630000000001
 20
539.11680000000001
 30
0.0
 10
346.12630000000001
 20
539.11680000000001
 30
0.0
  0
SPLINE
  5
2C
100
AcDbEntity
  8
Ebene 1
370
     5
100
AcDbSpline
210
0.0
220
0.0
230
1.0
 70
     0
 71
     3
 72
    12
 73
     8
 74
     0
 42
0.0000000001
 43
0.0000000001
 40
0.0
 40
0.0
 40
0.0
 40
0.0
 40
0.5
 40
0.5
 40
0.5
 40
0.5
 40
1.0
 40
1.0
 40
1.0
 40
1.0
 10
373.06350000000003
 20
352.49580000000003
 30
0.0
 10
373.06350000000003
 20
352.49580000000003
 30
0.0
 10
330.80490000000003
 20
352.1438
 30
0.0
 10
330.80490000000003
 20
352.1438
 30
0.0
 10
330.80490000000003
 20
352.1438
 30
0.0
 10
201.4905
 20
367.67380000000003
 30
0.0
 10
56.580200000000005
 20
363.32859999999999
 30
0.0
 10
-84.336300000000008
 20
346.19550000000004
 30
0.0
  0
SPLINE
  5
2D
100
AcDbEntity
  8
Ebene 1
370
     5
100
AcDbSpline
210
0.0
220
0.0
230
1.0
 70
     0
 71
     3
 72
    24
 73
    20
 74
     0
 42
0.0000000001
 43
0.0000000001
 40
0.0
 40
0.0
 40
0.0
 40
0.0
 40
0.2
 40
0.2
 40
0.2
 40
0.2
 40
0.4
 40
0.4
 40
0.4
 40
0.4
 40
0.6000000000000001
 40
0.6000000000000001
 40
0.6000000000000001
 40
0.6000000000000001
 40
0.8
 40
0.8
 40
0.8
 40
0.8
 40
1.0
 40
1.0
 40
1.0
 40
1.0
 10
-223.71770000000001
 20
334.96410000000003
 30
0.0
 10
-299.5145
 20
335.392
 30
0.0
 10
-355.66950000000003
 20
350.18620000000004
 30
0.0
 10
-364.70800000000003
 20
386.19880000000001
 30
0.0
 10
-364.70800000000003
 20
386.19880000000001
 30
0.0
 10
-366.51140000000004
 20
393.28960000000001
 30
0.0
 10
-356.96120000000002
 20
400.46280000000002
 30
0.0
 10
-367.7799
 20
408.31690000000003
 30
0.0
 10
-367.7799
 20
408.31690000000003
 30
0.0
 10
-367.7799
 20
408.31690000000003
 30
0.0
 10
-373.06350000000003
 20
410.14280000000002
 30
0.0
 10
-373.06350000000003
 20
410.14280000000002
 30
0.0
 10
-373.06350000000003
 20
410.14280000000002
 30
0.0
 10
-373.06350000000003
 20
410.14280000000002
 30
0.0
 10
-373.06350000000003
 20
451.05650000000003
 30
0.0
 10
-373.06350000000003
 20
451.05650000000003
 30
0.0
 10
-373.06350000000003
 20
451.05650000000003
 30
0.0
 10
-354.9194
 20
464.70740000000001
 30
0.0
 10
-317.46850000000001
 20
474.15500000000003
 30
0.0
 10
-269.5025
 20
479.3929
 30
0.0
  0
SPLINE
  5
2E
100
AcDbEntity
  8
Ebene 1
370
     5
100
AcDbSpline
210
0.0
220
0.0
230
1.0
 70
     0
 71
     3
 72
    12
 73
     8
 74
     0
 42
0.0000000001
 43
0.0000000001
 40
0.0
 40
0.0
 40
0.0
 40
0.0
 40
0.5
 40
0.5
 40
0.5
 40
0.5
 40
1.0
 40
1.0
 40
1.0
 40
1.0
 10
169.69120000000001
 20
503.92700000000002
 30
0.0
 10
248.4068
 20
481.07580000000002
 30
0.0
 10
260.88620000000003
 20
464.35060000000004
 30
0.0
 10
318.8965
 20
517.46559999999999
 30
0.0
 10
318.8965
 20
517.46559999999999
 30
0.0
 10
326.23349999999999
 20
524.06010000000003
 30
0.0
 10
335.13749999999999
 20
531.74350000000004
 30
0.0
 10
346.12630000000001
 20
539.11680000000001
 30
0.0
  0
SPLINE
  5
2F
100
AcDbEntity
  8
Ebene 1
370
     5
100
AcDbSpline
210
0.0
220
0.0
230
1.0
 70
     0
 71
     3
 72
     8
 73
     4
 74
     0
 42
0.0000000001
 43
0.0000000001
 40
0.0
 40
0.0
 40
0.0
 40
0.0
 40
1.0
 40
1.0
 40
1.0
 40
1.0
 10
302.17680000000001
 20
431.09910000000002
 30
0.0
 10
302.17680000000001
 20
431.09910000000002
 30
0.0
 10
323.32910000000004
 20
456.51680000000005
 30
0.0
 10
323.32910000000004
 20
456.51680000000005
 30
0.0
  0
SPLINE
  5
30
100
AcDbEntity
  8
Ebene 1
370
     5
100
AcDbSpline
210
0.0
220
0.0
230
1.0
 70
     0
 71
     3
 72
     8
 73
     4
 74
     0
 42
0.0000000001
 43
0.0000000001
 40
0.0
 40
0.0
 40
0.0
 40
0.0
 40
1.0
 40
1.0
 40
1.0
 40
1.0
 10
323.32910000000004
 20
402.89080000000001
 30
0.0
 10
323.32910000000004
 20
402.89080000000001
 30
0.0
 10
302.17680000000001
 20
428.09870000000001
 30
0.0
 10
302.17680000000001
 20
428.09870000000001
 30
0.0
  0
SPLINE
  5
31
100
AcDbEntity
  8
Ebene 1
370
     5
100
AcDbSpline
210
0.0
220
0.0
230
1.0
 70
     1
 71
     3
 72
    20
 73
    16
 74
     0
 42
0.0000000001
 43
0.0000000001
 40
0.0
 40
0.0
 40
0.0
 40
0.0
 40
0.25
 40
0.25
 40
0.25
 40
0.25
 40
0.5
 40
0.5
 40
0.5
 40
0.5
 40
0.75
 40
0.75
 40
0.75
 40
0.75
 40
1.0
 40
1.0
 40
1.0
 40
1.0
 10
-298.06350000000003
 20
431.09910000000002
 30
0.0
 10
-298.06350000000003
 20
431.09910000000002
 30
0.0
 10
-273.06350000000003
 20
431.09910000000002
 30
0.0
 10
-273.06350000000003
 20
431.09910000000002
 30
0.0
 10
-273.06350000000003
 20
431.09910000000002
 30
0.0
 10
-273.06350000000003
 20
431.09910000000002
 30
0.0
 10
-273.06350000000003
 20
428.09870000000001
 30
0.0
 10
-273.06350000000003
 20
428.09870000000001
 30
0.0
 10
-273.06350000000003
 20
428.09870000000001
 30
0.0
 10
-273.06350000000003
 20
428.09870000000001
 30
0.0
 10
-298.06350000000003
 20
428.09870000000001
 30
0.0
 10
-298.06350000000003
 20
428.09870000000001
 30
0.0
 10
-298.06350000000003
 20
428.09870000000001
 30
0.0
 10
-298.06350000000003
 20
428.09870000000001
 30
0.0
 10
-298.06350000000003
 20
431.09910000000002
 30
0.0
 10
-298.06350000000003
 20
431.09910000000002
 30
0.0
  0
SPLINE
  5
32
100
AcDbEntity
  8
Ebene 1
370
     5
100
AcDbSpline
210
0.0
220
0.0
230
1.0
 70
     1
 71
     3
 72
    20
 73
    16
 74
     0
 42
0.0000000001
 43
0.0000000001
 40
0.0
 40
0.0
 40
0.0
 40
0.0
 40
0.25
 40
0.25
 40
0.25
 40
0.25
 40
0.5
 40
0.5
 40
0.5
 40
0.5
 40
0.75
 40
0.75
 40
0.75
 40
0.75
 40
1.0
 40
1.0
 40
1.0
 40
1.0
 10
-248.0635
 20
431.09910000000002
 30
0.0
 10
-248.0635
 20
431.09910000000002
 30
0.0
 10
-223.0635
 20
431.09910000000002
 30
0.0
 10
-223.0635
 20
431.09910000000002
 30
0.0
 10
-223.0635
 20
431.09910000000002
 30
0.0
 10
-223.0635
 20
431.09910000000002
 30
0.0
 10
-223.0635
 20
428.09870000000001
 30
0.0
 10
-223.0635
 20
428.09870000000001
 30
0.0
 10
-223.0635
 20
428.09870000000001
 30
0.0
 10
-223.0635
 20
428.09870000000001
 30
0.0
 10
-248.0635
 20
428.09870000000001
 30
0.0
 10
-248.0635
 20
428.09870000000001
 30
0.0
 10
-248.0635
 20
428.09870000000001
 30
0.0
 10
-248.0635
 20
428.09870000000001
 30
0.0
 10
-248.0635
 20
431.09910000000002
 30
0.0
 10
-248.0635
 20
431.09910000000002
 30
0.0
  0
SPLINE
  5
33
100
AcDbEntity
  8
Ebene 1
370
     5
100
AcDbSpline
210
0.0
220
0.0
230
1.0
 70
     1
 71
     3
 72
    20
 73
    16
 74
     0
 42
0.0000000001
 43
0.0000000001
 40
0.0
 40
0.0
 40
0.0
 40
0.0
 40
0.25
 40
0.25
 40
0.25
 40
0.25
 40
0.5
 40
0.5
 40
0.5
 40
0.5
 40
0.75
 40
0.75
 40
0.75
 40
0.75
 40
1.0
 40
1.0
 40
1.0
 40
1.0
 10
-198.0635
 20
431.09910000000002
 30
0.0
 10
-198.0635
 20
431.09910000000002
 30
0.0
 10
-173.0635
 20
431.09910000000002
 30
0.0
 10
-173.0635
 20
431.09910000000002
 30
0.0
 10
-173.0635
 20
431.09910000000002
 30
0.0
 10
-173.0635
 20
431.09910000000002
 30
0.0
 10
-173.0635
 20
428.09870000000001
 30
0.0
 10
-173.0635
 20
428.09870000000001
 30
0.0
 10
-173.0635
 20
428.09870000000001
 30
0.0
 10
-173.0635
 20
428.09870000000001
 30
0.0
 10
-198.0635
 20
428.09870000000001
 30
0.0
 10
-198.0635
 20
428.09870000000001
 30
0.0
 10
-198.0635
 20
428.09870000000001
 30
0.0
 10
-198.0635
 20
428.09870000000001
 30
0.0
 10
-198.0635
 20
431.09910000000002
 30
0.0
 10
-198.0635
 20
431.09910000000002
 30
0.0
  0
SPLINE
  5
34
100
AcDbEntity
  8
Ebene 1
370
     5
100
AcDbSpline
210
0.0
220
0.0
230
1.0
 70
     1
 71
     3
 72
    20
 73
    16
 74
     0
 42
0.0000000001
 43
0.0000000001
 40
0.0
 40
0.0
 40
0.0
 40
0.0
 40
0.25
 40
0.25
 40
0.25
 40
0.25
 40
0.5
 40
0.5
 40
0.5
 40
0.5
 40
0.75
 40
0.75
 40
0.75
 40
0.75
 40
1.0
 40
1.0
 40
1.0
 40
1.0
 10
-148.0635
 20
431.09910000000002
 30
0.0
 10
-148.0635
 20
431.09910000000002
 30
0.0
 10
-123.0635
 20
431.09910000000002
 30
0.0
 10
-123.0635
 20
431.09910000000002
 30
0.0
 10
-123.0635
 20
431.09910000000002
 30
0.0
 10
-123.0635
 20
431.09910000000002
 30
0.0
 10
-123.0635
 20
428.09870000000001
 30
0.0
 10
-123.0635
 20
428.09870000000001
 30
0.0
 10
-123.0635
 20
428.09870000000001
 30
0.0
 10
-123.0635
 20
428.09870000000001
 30
0.0
 10
-148.0635
 20
428.09870000000001
 30
0.0
 10
-148.0635
 20
428.09870000000001
 30
0.0
 10
-148.0635
 20
428.09870000000001
 30
0.0
 10
-148.0635
 20
428.09870000000001
 30
0.0
 10
-148.0635
 20
431.09910000000002
 30
0.0
 10
-148.0635
 20
431.09910000000002
 30
0.0
  0
SPLINE
  5
35
100
AcDbEntity
  8
Ebene 1
370
     5
100
AcDbSpline
210
0.0
220
0.0
230
1.0
 70
     1
 71
     3
 72
    20
 73
    16
 74
     0
 42
0.0000000001
 43
0.0000000001
 40
0.0
 40
0.0
 40
0.0
 40
0.0
 40
0.25
 40
0.25
 40
0.25
 40
0.25
 40
0.5
 40
0.5
 40
0.5
 40
0.5
 40
0.75
 40
0.75
 40
0.75
 40
0.75
 40
1.0
 40
1.0
 40
1.0
 40
1.0
 10
-98.063500000000005
 20
431.09910000000002
 30
0.0
 10
-98.063500000000005
 20
431.09910000000002
 30
0.0
 10
-73.063500000000005
 20
431.09910000000002
 30
0.0
 10
-73.063500000000005
 20
431.09910000000002
 30
0.0
 10
-73.063500000000005
 20
431.09910000000002
 30
0.0
 10
-73.063500000000005
 20
431.09910000000002
 30
0.0
 10
-73.063500000000005
 20
428.09870000000001
 30
0.0
 10
-73.063500000000005
 20
428.09870000000001
 30
0.0
 10
-73.063500000000005
 20
428.09870000000001
 30
0.0
 10
-73.063500000000005
 20
428.09870000000001
 30
0.0
 10
-98.063500000000005
 20
428.09870000000001
 30
0.0
 10
-98.063500000000005
 20
428.09870000000001
 30
0.0
 10
-98.063500000000005
 20
428.09870000000001
 30
0.0
 10
-98.063500000000005
 20
428.09870000000001
 30
0.0
 10
-98.063500000000005
 20
431.09910000000002
 30
0.0
 10
-98.063500000000005
 20
431.09910000000002
 30
0.0
  0
SPLINE
  5
36
100
AcDbEntity
  8
Ebene 1
370
     5
100
AcDbSpline
210
0.0
220
0.0
230
1.0
 70
     1
 71
     3
 72
    20
 73
    16
 74
     0
 42
0.0000000001
 43
0.0000000001
 40
0.0
 40
0.0
 40
0.0
 40
0.0
 40
0.25
 40
0.25
 40
0.25
 40
0.25
 40
0.5
 40
0.5
 40
0.5
 40
0.5
 40
0.75
 40
0.75
 40
0.75
 40
0.75
 40
1.0
 40
1.0
 40
1.0
 40
1.0
 10
-48.063500000000005
 20
431.09910000000002
 30
0.0
 10
-48.063500000000005
 20
431.09910000000002
 30
0.0
 10
-23.063500000000001
 20
431.09910000000002
 30
0.0
 10
-23.063500000000001
 20
431.09910000000002
 30
0.0
 10
-23.063500000000001
 20
431.09910000000002
 30
0.0
 10
-23.063500000000001
 20
431.09910000000002
 30
0.0
 10
-23.063500000000001
 20
428.09870000000001
 30
0.0
 10
-23.063500000000001
 20
428.09870000000001
 30
0.0
 10
-23.063500000000001
 20
428.09870000000001
 30
0.0
 10
-23.063500000000001
 20
428.09870000000001
 30
0.0
 10
-48.063500000000005
 20
428.09870000000001
 30
0.0
 10
-48.063500000000005
 20
428.09870000000001
 30
0.0
 10
-48.063500000000005
 20
428.09870000000001
 30
0.0
 10
-48.063500000000005
 20
428.09870000000001
 30
0.0
 10
-48.063500000000005
 20
431.09910000000002
 30
0.0
 10
-48.063500000000005
 20
431.09910000000002
 30
0.0
  0
SPLINE
  5
37
100
AcDbEntity
  8
Ebene 1
370
     5
100
AcDbSpline
210
0.0
220
0.0
230
1.0
 70
     1
 71
     3
 72
    20
 73
    16
 74
     0
 42
0.0000000001
 43
0.0000000001
 40
0.0
 40
0.0
 40
0.0
 40
0.0
 40
0.25
 40
0.25
 40
0.25
 40
0.25
 40
0.5
 40
0.5
 40
0.5
 40
0.5
 40
0.75
 40
0.75
 40
0.75
 40
0.75
 40
1.0
 40
1.0
 40
1.0
 40
1.0
 10
1.9365000000000001
 20
431.09910000000002
 30
0.0
 10
1.9365000000000001
 20
431.09910000000002
 30
0.0
 10
26.936500000000002
 20
431.09910000000002
 30
0.0
 10
26.936500000000002
 20
431.09910000000002
 30
0.0
 10
26.936500000000002
 20
431.09910000000002
 30
0.0
 10
26.936500000000002
 20
431.09910000000002
 30
0.0
 10
26.936500000000002
 20
428.09870000000001
 30
0.0
 10
26.936500000000002
 20
428.09870000000001
 30
0.0
 10
26.936500000000002
 20
428.09870000000001
 30
0.0
 10
26.936500000000002
 20
428.09870000000001
 30
0.0
 10
1.9365000000000001
 20
428.09870000000001
 30
0.0
 10
1.9365000000000001
 20
428.09870000000001
 30
0.0
 10
1.9365000000000001
 20
428.09870000000001
 30
0.0
 10
1.9365000000000001
 20
428.09870000000001
 30
0.0
 10
1.9365000000000001
 20
431.09910000000002
 30
0.0
 10
1.9365000000000001
 20
431.09910000000002
 30
0.0
  0
SPLINE
  5
38
100
AcDbEntity
  8
Ebene 1
370
     5
100
AcDbSpline
210
0.0
220
0.0
230
1.0
 70
     1
 71
     3
 72
    20
 73
    16
 74
     0
 42
0.0000000001
 43
0.0000000001
 40
0.0
 40
0.0
 40
0.0
 40
0.0
 40
0.25
 40
0.25
 40
0.25
 40
0.25
 40
0.5
 40
0.5
 40
0.5
 40
0.5
 40
0.75
 40
0.75
 40
0.75
 40
0.75
 40
1.0
 40
1.0
 40
1.0
 40
1.0
 10
51.936500000000002
 20
431.09910000000002
 30
0.0
 10
51.936500000000002
 20
431.09910000000002
 30
0.0
 10
76.936500000000009
 20
431.09910000000002
 30
0.0
 10
76.936500000000009
 20
431.09910000000002
 30
0.0
 10
76.936500000000009
 20
431.09910000000002
 30
0.0
 10
76.936500000000009
 20
431.09910000000002
 30
0.0
 10
76.936500000000009
 20
428.09870000000001
 30
0.0
 10
76.936500000000009
 20
428.09870000000001
 30
0.0
 10
76.936500000000009
 20
428.09870000000001
 30
0.0
 10
76.936500000000009
 20
428.09870000000001
 30
0.0
 10
51.936500000000002
 20
428.09870000000001
 30
0.0
 10
51.936500000000002
 20
428.09870000000001
 30
0.0
 10
51.936500000000002
 20
428.09870000000001
 30
0.0
 10
51.936500000000002
 20
428.09870000000001
 30
0.0
 10
51.936500000000002
 20
431.09910000000002
 30
0.0
 10
51.936500000000002
 20
431.09910000000002
 30
0.0
  0
SPLINE
  5
39
100
AcDbEntity
  8
Ebene 1
370
     5
100
AcDbSpline
210
0.0
220
0.0
230
1.0
 70
     1
 71
     3
 72
    20
 73
    16
 74
     0
 42
0.0000000001
 43
0.0000000001
 40
0.0
 40
0.0
 40
0.0
 40
0.0
 40
0.25
 40
0.25
 40
0.25
 40
0.25
 40
0.5
 40
0.5
 40
0.5
 40
0.5
 40
0.75
 40
0.75
 40
0.75
 40
0.75
 40
1.0
 40
1.0
 40
1.0
 40
1.0
 10
101.93650000000001
 20
431.09910000000002
 30
0.0
 10
101.93650000000001
 20
431.09910000000002
 30
0.0
 10
126.93650000000001
 20
431.09910000000002
 30
0.0
 10
126.93650000000001
 20
431.09910000000002
 30
0.0
 10
126.93650000000001
 20
431.09910000000002
 30
0.0
 10
126.93650000000001
 20
431.09910000000002
 30
0.0
 10
126.93650000000001
 20
428.09870000000001
 30
0.0
 10
126.93650000000001
 20
428.09870000000001
 30
0.0
 10
126.93650000000001
 20
428.09870000000001
 30
0.0
 10
126.93650000000001
 20
428.09870000000001
 30
0.0
 10
101.93650000000001
 20
428.09870000000001
 30
0.0
 10
101.93650000000001
 20
428.09870000000001
 30
0.0
 10
101.93650000000001
 20
428.09870000000001
 30
0.0
 10
101.93650000000001
 20
428.09870000000001
 30
0.0
 10
101.93650000000001
 20
431.09910000000002
 30
0.0
 10
101.93650000000001
 20
431.09910000000002
 30
0.0
  0
SPLINE
  5
3A
100
AcDbEntity
  8
Ebene 1
370
     5
100
AcDbSpline
210
0.0
220
0.0
230
1.0
 70
     1
 71
     3
 72
    20
 73
    16
 74
     0
 42
0.0000000001
 43
0.0000000001
 40
0.0
 40
0.0
 40
0.0
 40
0.0
 40
0.25
 40
0.25
 40
0.25
 40
0.25
 40
0.5
 40
0.5
 40
0.5
 40
0.5
 40
0.75
 40
0.75
 40
0.75
 40
0.75
 40
1.0
 40
1.0
 40
1.0
 40
1.0
 10
151.9365
 20
431.09910000000002
 30
0.0
 10
151.9365
 20
431.09910000000002
 30
0.0
 10
176.9365
 20
431.09910000000002
 30
0.0
 10
176.9365
 20
431.09910000000002
 30
0.0
 10
176.9365
 20
431.09910000000002
 30
0.0
 10
176.9365
 20
431.09910000000002
 30
0.0
 10
176.9365
 20
428.09870000000001
 30
0.0
 10
176.9365
 20
428.09870000000001
 30
0.0
 10
176.9365
 20
428.09870000000001
 30
0.0
 10
176.9365
 20
428.09870000000001
 30
0.0
 10
151.9365
 20
428.09870000000001
 30
0.0
 10
151.9365
 20
428.09870000000001
 30
0.0
 10
151.9365
 20
428.09870000000001
 30
0.0
 10
151.9365
 20
428.09870000000001
 30
0.0
 10
151.9365
 20
431.09910000000002
 30
0.0
 10
151.9365
 20
431.09910000000002
 30
0.0
  0
SPLINE
  5
3B
100
AcDbEntity
  8
Ebene 1
370
     5
100
AcDbSpline
210
0.0
220
0.0
230
1.0
 70
     1
 71
     3
 72
    20
 73
    16
 74
     0
 42
0.0000000001
 43
0.0000000001
 40
0.0
 40
0.0
 40
0.0
 40
0.0
 40
0.25
 40
0.25
 40
0.25
 40
0.25
 40
0.5
 40
0.5
 40
0.5
 40
0.5
 40
0.75
 40
0.75
 40
0.75
 40
0.75
 40
1.0
 40
1.0
 40
1.0
 40
1.0
 10
201.93650000000002
 20
431.09910000000002
 30
0.0
 10
201.93650000000002
 20
431.09910000000002
 30
0.0
 10
226.93650000000002
 20
431.09910000000002
 30
0.0
 10
226.93650000000002
 20
431.09910000000002
 30
0.0
 10
226.93650000000002
 20
431.09910000000002
 30
0.0
 10
226.93650000000002
 20
431.09910000000002
 30
0.0
 10
226.93650000000002
 20
428.09870000000001
 30
0.0
 10
226.93650000000002
 20
428.09870000000001
 30
0.0
 10
226.93650000000002
 20
428.09870000000001
 30
0.0
 10
226.93650000000002
 20
428.09870000000001
 30
0.0
 10
201.93650000000002
 20
428.09870000000001
 30
0.0
 10
201.93650000000002
 20
428.09870000000001
 30
0.0
 10
201.93650000000002
 20
428.09870000000001
 30
0.0
 10
201.93650000000002
 20
428.09870000000001
 30
0.0
 10
201.93650000000002
 20
431.09910000000002
 30
0.0
 10
201.93650000000002
 20
431.09910000000002
 30
0.0
  0
SPLINE
  5
3C
100
AcDbEntity
  8
Ebene 1
370
     5
100
AcDbSpline
210
0.0
220
0.0
230
1.0
 70
     0
 71
     3
 72
    16
 73
    12
 74
     0
 42
0.0000000001
 43
0.0000000001
 40
0.0
 40
0.0
 40
0.0
 40
0.0
 40
0.3333333333333333
 40
0.3333333333333333
 40
0.3333333333333333
 40
0.3333333333333333
 40
0.6666666666666666
 40
0.6666666666666666
 40
0.6666666666666666
 40
0.6666666666666666
 40
1.0
 40
1.0
 40
1.0
 40
1.0
 10
302.17680000000001
 20
428.09870000000001
 30
0.0
 10
302.17680000000001
 20
428.09870000000001
 30
0.0
 10
277.17680000000001
 20
428.09870000000001
 30
0.0
 10
277.17680000000001
 20
428.09870000000001
 30
0.0
 10
277.17680000000001
 20
428.09870000000001
 30
0.0
 10
277.17680000000001
 20
428.09870000000001
 30
0.0
 10
277.17680000000001
 20
431.09910000000002
 30
0.0
 10
277.17680000000001
 20
431.09910000000002
 30
0.0
 10
277.17680000000001
 20
431.09910000000002
 30
0.0
 10
277.17680000000001
 20
431.09910000000002
 30
0.0
 10
302.17680000000001
 20
431.09910000000002
 30
0.0
 10
302.17680000000001
 20
431.09910000000002
 30
0.0
  0
SPLINE
  5
3D
100
AcDbEntity
  8
Ebene 1
370
     5
100
AcDbSpline
210
0.0
220
0.0
230
1.0
 70
     0
 71
     3
 72
     8
 73
     4
 74
     0
 42
0.0000000001
 43
0.0000000001
 40
0.0
 40
0.0
 40
0.0
 40
0.0
 40
1.0
 40
1.0
 40
1.0
 40
1.0
 10
-213.0635
 20
513.30190000000005
 30
0.0
 10
-213.0635
 20
513.30190000000005
 30
0.0
 10
-237.12880000000001
 20
513.30190000000005
 30
0.0
 10
-237.12880000000001
 20
513.30190000000005
 30
0.0
  0
SPLINE
  5
3E
100
AcDbEntity
  8
Ebene 1
370
     5
100
AcDbSpline
210
0.0
220
0.0
230
1.0
 70
     0
 71
     3
 72
     8
 73
     4
 74
     0
 42
0.0000000001
 43
0.0000000001
 40
0.0
 40
0.0
 40
0.0
 40
0.0
 40
1.0
 40
1.0
 40
1.0
 40
1.0
 10
-237.33620000000002
 20
513.32780000000002
 30
0.0
 10
-221.15180000000001
 20
501.00020000000001
 30
0.0
 10
-243.45700000000002
 20
482.68380000000002
 30
0.0
 10
-269.5025
 20
479.3929
 30
0.0
  0
SPLINE
  5
3F
100
AcDbEntity
  8
Ebene 1
370
     5
100
AcDbSpline
210
0.0
220
0.0
230
1.0
 70
     0
 71
     3
 72
    16
 73
    12
 74
     0
 42
0.0000000001
 43
0.0000000001
 40
0.0
 40
0.0
 40
0.0
 40
0.0
 40
0.3333333333333333
 40
0.3333333333333333
 40
0.3333333333333333
 40
0.3333333333333333
 40
0.6666666666666666
 40
0.6666666666666666
 40
0.6666666666666666
 40
0.6666666666666666
 40
1.0
 40
1.0
 40
1.0
 40
1.0
 10
-163.0635
 20
513.30190000000005
 30
0.0
 10
-163.0635
 20
513.30190000000005
 30
0.0
 10
-163.0635
 20
516.30230000000006
 30
0.0
 10
-163.0635
 20
516.30230000000006
 30
0.0
 10
-163.0635
 20
516.30230000000006
 30
0.0
 10
-163.0635
 20
516.30230000000006
 30
0.0
 10
-213.0635
 20
516.30230000000006
 30
0.0
 10
-213.0635
 20
516.30230000000006
 30
0.0
 10
-213.0635
 20
516.30230000000006
 30
0.0
 10
-213.0635
 20
516.30230000000006
 30
0.0
 10
-213.0635
 20
513.30190000000005
 30
0.0
 10
-213.0635
 20
513.30190000000005
 30
0.0
  0
SPLINE
  5
40
100
AcDbEntity
  8
Ebene 1
370
     5
100
AcDbSpline
210
0.0
220
0.0
230
1.0
 70
     0
 71
     3
 72
    16
 73
    12
 74
     0
 42
0.0000000001
 43
0.0000000001
 40
0.0
 40
0.0
 40
0.0
 40
0.0
 40
0.3333333333333333
 40
0.3333333333333333
 40
0.3333333333333333
 40
0.3333333333333333
 40
0.6666666666666666
 40
0.6666666666666666
 40
0.6666666666666666
 40
0.6666666666666666
 40
1.0
 40
1.0
 40
1.0
 40
1.0
 10
-97.700000000000003
 20
481.51440000000002
 30
0.0
 10
-97.700000000000003
 20
481.51440000000002
 30
0.0
 10
-115.0707
 20
482.60610000000003
 30
0.0
 10
-115.0707
 20
482.60610000000003
 30
0.0
 10
-115.0707
 20
482.60610000000003
 30
0.0
 10
-142.18520000000001
 20
485.0514
 30
0.0
 10
-157.83580000000001
 20
492.39940000000001
 30
0.0
 10
-141.7921
 20
513.30190000000005
 30
0.0
 10
-141.7921
 20
513.30190000000005
 30
0.0
 10
-141.7921
 20
513.30190000000005
 30
0.0
 10
-163.0635
 20
513.30190000000005
 30
0.0
 10
-163.0635
 20
513.30190000000005
 30
0.0
  0
SPLINE
  5
41
100
AcDbEntity
  8
Ebene 1
370
     5
100
AcDbSpline
210
0.0
220
0.0
230
1.0
 70
     0
 71
     3
 72
    12
 73
     8
 74
     0
 42
0.0000000001
 43
0.0000000001
 40
0.0
 40
0.0
 40
0.0
 40
0.0
 40
0.5
 40
0.5
 40
0.5
 40
0.5
 40
1.0
 40
1.0
 40
1.0
 40
1.0
 10
-175.93260000000001
 20
343.19420000000002
 30
0.0
 10
-175.93260000000001
 20
343.19420000000002
 30
0.0
 10
-175.93260000000001
 20
345.84430000000003
 30
0.0
 10
-175.93260000000001
 20
345.84430000000003
 30
0.0
 10
-175.93260000000001
 20
345.84430000000003
 30
0.0
 10
-175.93260000000001
 20
345.84430000000003
 30
0.0
 10
-175.93260000000001
 20
346.19460000000004
 30
0.0
 10
-175.93260000000001
 20
346.19460000000004
 30
0.0
  0
SPLINE
  5
42
100
AcDbEntity
  8
Ebene 1
370
     5
100
AcDbSpline
210
0.0
220
0.0
230
1.0
 70
     0
 71
     3
 72
    12
 73
     8
 74
     0
 42
0.0000000001
 43
0.0000000001
 40
0.0
 40
0.0
 40
0.0
 40
0.0
 40
0.5
 40
0.5
 40
0.5
 40
0.5
 40
1.0
 40
1.0
 40
1.0
 40
1.0
 10
-175.93260000000001
 20
343.19420000000002
 30
0.0
 10
-175.93260000000001
 20
343.19420000000002
 30
0.0
 10
-131.7705
 20
343.19420000000002
 30
0.0
 10
-131.7705
 20
343.19420000000002
 30
0.0
 10
-131.7705
 20
343.19420000000002
 30
0.0
 10
-131.7705
 20
343.19420000000002
 30
0.0
 10
-125.93260000000001
 20
343.19420000000002
 30
0.0
 10
-125.93260000000001
 20
343.19420000000002
 30
0.0
  0
SPLINE
  5
43
100
AcDbEntity
  8
Ebene 1
370
     5
100
AcDbSpline
210
0.0
220
0.0
230
1.0
 70
     0
 71
     3
 72
    12
 73
     8
 74
     0
 42
0.0000000001
 43
0.0000000001
 40
0.0
 40
0.0
 40
0.0
 40
0.0
 40
0.5
 40
0.5
 40
0.5
 40
0.5
 40
1.0
 40
1.0
 40
1.0
 40
1.0
 10
-175.93260000000001
 20
346.19460000000004
 30
0.0
 10
-175.93260000000001
 20
346.19460000000004
 30
0.0
 10
-223.762
 20
346.20600000000002
 30
0.0
 10
-223.762
 20
346.20600000000002
 30
0.0
 10
-223.762
 20
346.20600000000002
 30
0.0
 10
-223.762
 20
346.20600000000002
 30
0.0
 10
-223.71770000000001
 20
334.96410000000003
 30
0.0
 10
-223.71770000000001
 20
334.96410000000003
 30
0.0
  0
SPLINE
  5
44
100
AcDbEntity
  8
Ebene 1
370
     5
100
AcDbSpline
210
0.0
220
0.0
230
1.0
 70
     0
 71
     3
 72
    12
 73
     8
 74
     0
 42
0.0000000001
 43
0.0000000001
 40
0.0
 40
0.0
 40
0.0
 40
0.0
 40
0.5
 40
0.5
 40
0.5
 40
0.5
 40
1.0
 40
1.0
 40
1.0
 40
1.0
 10
323.32910000000004
 20
456.51680000000005
 30
0.0
 10
331.25120000000004
 20
449.86799999999999
 30
0.0
 10
335.83180000000004
 20
440.0487
 30
0.0
 10
335.83180000000004
 20
429.7038
 30
0.0
 10
335.83180000000004
 20
429.7038
 30
0.0
 10
335.83180000000004
 20
419.35890000000001
 30
0.0
 10
331.25120000000004
 20
409.53960000000001
 30
0.0
 10
323.32910000000004
 20
402.89080000000001
 30
0.0
  0
ELLIPSE
  5
45
100
AcDbEntity
  8
Ebene 1
370
     5
100
AcDbEllipse
 10
365.0635
 20
512.4957
 30
0.0
 11
0.0
 21
0.75
 31
0.0
210
0.0
220
0.0
230
1.0
 40
1.0
 41
0.0
 42
6.2831799999999998
  0
SPLINE
  5
46
100
AcDbEntity
  8
Ebene 1
370
     5
100
AcDbSpline
210
0.0
220
0.0
230
1.0
 70
     0
 71
     3
 72
     8
 73
     4
 74
     0
 42
0.0000000001
 43
0.0000000001
 40
0.0
 40
0.0
 40
0.0
 40
0.0
 40
1.0
 40
1.0
 40
1.0
 40
1.0
 10
365.06350000000003
 20
513.74580000000003
 30
0.0
 10
365.06350000000003
 20
513.74580000000003
 30
0.0
 10
365.06350000000003
 20
511.24580000000003
 30
0.0
 10
365.06350000000003
 20
511.24580000000003
 30
0.0
  0
SPLINE
  5
47
100
AcDbEntity
  8
Ebene 1
370
     5
100
AcDbSpline
210
0.0
220
0.0
230
1.0
 70
     0
 71
     3
 72
     8
 73
     4
 74
     0
 42
0.0000000001
 43
0.0000000001
 40
0.0
 40
0.0
 40
0.0
 40
0.0
 40
1.0
 40
1.0
 40
1.0
 40
1.0
 10
363.81350000000003
 20
512.49580000000003
 30
0.0
 10
363.81350000000003
 20
512.49580000000003
 30
0.0
 10
366.31350000000003
 20
512.49580000000003
 30
0.0
 10
366.31350000000003
 20
512.49580000000003
 30
0.0
  0
SPLINE
  5
48
100
AcDbEntity
  8
Ebene 1
370
     5
100
AcDbSpline
210
0.0
220
0.0
230
1.0
 70
     0
 71
     3
 72
    12
 73
     8
 74
     0
 42
0.0000000001
 43
0.0000000001
 40
0.0
 40
0.0
 40
0.0
 40
0.0
 40
0.5
 40
0.5
 40
0.5
 40
0.5
 40
1.0
 40
1.0
 40
1.0
 40
1.0
 10
240.67150000000001
 20
420.02500000000003
 30
0.0
 10
246.74560000000002
 20
420.02500000000003
 30
0.0
 10
251.67150000000001
 20
415.09910000000002
 30
0.0
 10
251.67150000000001
 20
409.02500000000003
 30
0.0
 10
251.67150000000001
 20
409.02500000000003
 30
0.0
 10
251.67150000000001
 20
402.95090000000005
 30
0.0
 10
246.74560000000002
 20
398.02500000000003
 30
0.0
 10
240.67150000000001
 20
398.02500000000003
 30
0.0
  0
SPLINE
  5
49
100
AcDbEntity
  8
Ebene 1
370
     5
100
AcDbSpline
210
0.0
220
0.0
230
1.0
 70
     0
 71
     3
 72
    20
 73
    16
 74
     0
 42
0.0000000001
 43
0.0000000001
 40
0.0
 40
0.0
 40
0.0
 40
0.0
 40
0.25
 40
0.25
 40
0.25
 40
0.25
 40
0.5
 40
0.5
 40
0.5
 40
0.5
 40
0.75
 40
0.75
 40
0.75
 40
0.75
 40
1.0
 40
1.0
 40
1.0
 40
1.0
 10
240.67150000000001
 20
420.02500000000003
 30
0.0
 10
240.67150000000001
 20
420.02500000000003
 30
0.0
 10
202.67150000000001
 20
420.02500000000003
 30
0.0
 10
202.67150000000001
 20
420.02500000000003
 30
0.0
 10
202.67150000000001
 20
420.02500000000003
 30
0.0
 10
196.59740000000002
 20
420.02500000000003
 30
0.0
 10
191.67150000000001
 20
415.09910000000002
 30
0.0
 10
191.67150000000001
 20
409.02500000000003
 30
0.0
 10
191.67150000000001
 20
409.02500000000003
 30
0.0
 10
191.67150000000001
 20
402.95090000000005
 30
0.0
 10
196.59740000000002
 20
398.02500000000003
 30
0.0
 10
202.67150000000001
 20
398.02500000000003
 30
0.0
 10
202.67150000000001
 20
398.02500000000003
 30
0.0
 10
202.67150000000001
 20
398.02500000000003
 30
0.0
 10
240.67150000000001
 20
398.02500000000003
 30
0.0
 10
240.67150000000001
 20
398.02500000000003
 30
0.0
  0
SPLINE
  5
4A
100
AcDbEntity
  8
Ebene 1
370
     5
100
AcDbSpline
210
0.0
220
0.0
230
1.0
 70
     0
 71
     3
 72
    12
 73
     8
 74
     0
 42
0.0000000001
 43
0.0000000001
 40
0.0
 40
0.0
 40
0.0
 40
0.0
 40
0.5
 40
0.5
 40
0.5
 40
0.5
 40
1.0
 40
1.0
 40
1.0
 40
1.0
 10
165.67150000000001
 20
420.02500000000003
 30
0.0
 10
171.7456
 20
420.02500000000003
 30
0.0
 10
176.67150000000001
 20
415.09910000000002
 30
0.0
 10
176.67150000000001
 20
409.02500000000003
 30
0.0
 10
176.67150000000001
 20
409.02500000000003
 30
0.0
 10
176.67150000000001
 20
402.95090000000005
 30
0.0
 10
171.7456
 20
398.02500000000003
 30
0.0
 10
165.67150000000001
 20
398.02500000000003
 30
0.0
  0
SPLINE
  5
4B
100
AcDbEntity
  8
Ebene 1
370
     5
100
AcDbSpline
210
0.0
220
0.0
230
1.0
 70
     0
 71
     3
 72
    20
 73
    16
 74
     0
 42
0.0000000001
 43
0.0000000001
 40
0.0
 40
0.0
 40
0.0
 40
0.0
 40
0.25
 40
0.25
 40
0.25
 40
0.25
 40
0.5
 40
0.5
 40
0.5
 40
0.5
 40
0.75
 40
0.75
 40
0.75
 40
0.75
 40
1.0
 40
1.0
 40
1.0
 40
1.0
 10
165.67150000000001
 20
420.02500000000003
 30
0.0
 10
165.67150000000001
 20
420.02500000000003
 30
0.0
 10
127.67150000000001
 20
420.02500000000003
 30
0.0
 10
127.67150000000001
 20
420.02500000000003
 30
0.0
 10
127.67150000000001
 20
420.02500000000003
 30
0.0
 10
121.59740000000001
 20
420.02500000000003
 30
0.0
 10
116.67150000000001
 20
415.09910000000002
 30
0.0
 10
116.67150000000001
 20
409.02500000000003
 30
0.0
 10
116.67150000000001
 20
409.02500000000003
 30
0.0
 10
116.67150000000001
 20
402.95090000000005
 30
0.0
 10
121.59740000000001
 20
398.02500000000003
 30
0.0
 10
127.67150000000001
 20
398.02500000000003
 30
0.0
 10
127.67150000000001
 20
398.02500000000003
 30
0.0
 10
127.67150000000001
 20
398.02500000000003
 30
0.0
 10
165.67150000000001
 20
398.02500000000003
 30
0.0
 10
165.67150000000001
 20
398.02500000000003
 30
0.0
  0
SPLINE
  5
4C
100
AcDbEntity
  8
Ebene 1
370
     5
100
AcDbSpline
210
0.0
220
0.0
230
1.0
 70
     0
 71
     3
 72
    12
 73
     8
 74
     0
 42
0.0000000001
 43
0.0000000001
 40
0.0
 40
0.0
 40
0.0
 40
0.0
 40
0.5
 40
0.5
 40
0.5
 40
0.5
 40
1.0
 40
1.0
 40
1.0
 40
1.0
 10
90.671500000000009
 20
420.02500000000003
 30
0.0
 10
96.74560000000001
 20
420.02500000000003
 30
0.0
 10
101.67150000000001
 20
415.09910000000002
 30
0.0
 10
101.67150000000001
 20
409.02500000000003
 30
0.0
 10
101.67150000000001
 20
409.02500000000003
 30
0.0
 10
101.67150000000001
 20
402.95090000000005
 30
0.0
 10
96.74560000000001
 20
398.02500000000003
 30
0.0
 10
90.671500000000009
 20
398.02500000000003
 30
0.0
  0
SPLINE
  5
4D
100
AcDbEntity
  8
Ebene 1
370
     5
100
AcDbSpline
210
0.0
220
0.0
230
1.0
 70
     0
 71
     3
 72
    20
 73
    16
 74
     0
 42
0.0000000001
 43
0.0000000001
 40
0.0
 40
0.0
 40
0.0
 40
0.0
 40
0.25
 40
0.25
 40
0.25
 40
0.25
 40
0.5
 40
0.5
 40
0.5
 40
0.5
 40
0.75
 40
0.75
 40
0.75
 40
0.75
 40
1.0
 40
1.0
 40
1.0
 40
1.0
 10
90.671500000000009
 20
420.02500000000003
 30
0.0
 10
90.671500000000009
 20
420.02500000000003
 30
0.0
 10
52.671500000000002
 20
420.02500000000003
 30
0.0
 10
52.671500000000002
 20
420.02500000000003
 30
0.0
 10
52.671500000000002
 20
420.02500000000003
 30
0.0
 10
46.5974
 20
420.02500000000003
 30
0.0
 10
41.671500000000002
 20
415.09910000000002
 30
0.0
 10
41.671500000000002
 20
409.02500000000003
 30
0.0
 10
41.671500000000002
 20
409.02500000000003
 30
0.0
 10
41.671500000000002
 20
402.95090000000005
 30
0.0
 10
46.5974
 20
398.02500000000003
 30
0.0
 10
52.671500000000002
 20
398.02500000000003
 30
0.0
 10
52.671500000000002
 20
398.02500000000003
 30
0.0
 10
52.671500000000002
 20
398.02500000000003
 30
0.0
 10
90.671500000000009
 20
398.02500000000003
 30
0.0
 10
90.671500000000009
 20
398.02500000000003
 30
0.0
  0
SPLINE
  5
4E
100
AcDbEntity
  8
Ebene 1
370
     5
100
AcDbSpline
210
0.0
220
0.0
230
1.0
 70
     0
 71
     3
 72
    12
 73
     8
 74
     0
 42
0.0000000001
 43
0.0000000001
 40
0.0
 40
0.0
 40
0.0
 40
0.0
 40
0.5
 40
0.5
 40
0.5
 40
0.5
 40
1.0
 40
1.0
 40
1.0
 40
1.0
 10
15.6715
 20
420.02500000000003
 30
0.0
 10
21.7456
 20
420.02500000000003
 30
0.0
 10
26.671500000000002
 20
415.09910000000002
 30
0.0
 10
26.671500000000002
 20
409.02500000000003
 30
0.0
 10
26.671500000000002
 20
409.02500000000003
 30
0.0
 10
26.671500000000002
 20
402.95090000000005
 30
0.0
 10
21.7456
 20
398.02500000000003
 30
0.0
 10
15.6715
 20
398.02500000000003
 30
0.0
  0
SPLINE
  5
4F
100
AcDbEntity
  8
Ebene 1
370
     5
100
AcDbSpline
210
0.0
220
0.0
230
1.0
 70
     0
 71
     3
 72
    20
 73
    16
 74
     0
 42
0.0000000001
 43
0.0000000001
 40
0.0
 40
0.0
 40
0.0
 40
0.0
 40
0.25
 40
0.25
 40
0.25
 40
0.25
 40
0.5
 40
0.5
 40
0.5
 40
0.5
 40
0.75
 40
0.75
 40
0.75
 40
0.75
 40
1.0
 40
1.0
 40
1.0
 40
1.0
 10
15.6715
 20
420.02500000000003
 30
0.0
 10
15.6715
 20
420.02500000000003
 30
0.0
 10
-22.328500000000002
 20
420.02500000000003
 30
0.0
 10
-22.328500000000002
 20
420.02500000000003
 30
0.0
 10
-22.328500000000002
 20
420.02500000000003
 30
0.0
 10
-28.4026
 20
420.02500000000003
 30
0.0
 10
-33.328499999999998
 20
415.09910000000002
 30
0.0
 10
-33.328499999999998
 20
409.02500000000003
 30
0.0
 10
-33.328499999999998
 20
409.02500000000003
 30
0.0
 10
-33.328499999999998
 20
402.95090000000005
 30
0.0
 10
-28.4026
 20
398.02500000000003
 30
0.0
 10
-22.328500000000002
 20
398.02500000000003
 30
0.0
 10
-22.328500000000002
 20
398.02500000000003
 30
0.0
 10
-22.328500000000002
 20
398.02500000000003
 30
0.0
 10
15.6715
 20
398.02500000000003
 30
0.0
 10
15.6715
 20
398.02500000000003
 30
0.0
  0
SPLINE
  5
50
100
AcDbEntity
  8
Ebene 1
370
     5
100
AcDbSpline
210
0.0
220
0.0
230
1.0
 70
     0
 71
     3
 72
    12
 73
     8
 74
     0
 42
0.0000000001
 43
0.0000000001
 40
0.0
 40
0.0
 40
0.0
 40
0.0
 40
0.5
 40
0.5
 40
0.5
 40
0.5
 40
1.0
 40
1.0
 40
1.0
 40
1.0
 10
-59.328500000000005
 20
420.02500000000003
 30
0.0
 10
-53.254400000000004
 20
420.02500000000003
 30
0.0
 10
-48.328500000000005
 20
415.09910000000002
 30
0.0
 10
-48.328500000000005
 20
409.02500000000003
 30
0.0
 10
-48.328500000000005
 20
409.02500000000003
 30
0.0
 10
-48.328500000000005
 20
402.95090000000005
 30
0.0
 10
-53.254400000000004
 20
398.02500000000003
 30
0.0
 10
-59.328500000000005
 20
398.02500000000003
 30
0.0
  0
SPLINE
  5
51
100
AcDbEntity
  8
Ebene 1
370
     5
100
AcDbSpline
210
0.0
220
0.0
230
1.0
 70
     0
 71
     3
 72
    20
 73
    16
 74
     0
 42
0.0000000001
 43
0.0000000001
 40
0.0
 40
0.0
 40
0.0
 40
0.0
 40
0.25
 40
0.25
 40
0.25
 40
0.25
 40
0.5
 40
0.5
 40
0.5
 40
0.5
 40
0.75
 40
0.75
 40
0.75
 40
0.75
 40
1.0
 40
1.0
 40
1.0
 40
1.0
 10
-59.328500000000005
 20
420.02500000000003
 30
0.0
 10
-59.328500000000005
 20
420.02500000000003
 30
0.0
 10
-97.328500000000005
 20
420.02500000000003
 30
0.0
 10
-97.328500000000005
 20
420.02500000000003
 30
0.0
 10
-97.328500000000005
 20
420.02500000000003
 30
0.0
 10
-103.40260000000001
 20
420.02500000000003
 30
0.0
 10
-108.32850000000001
 20
415.09910000000002
 30
0.0
 10
-108.32850000000001
 20
409.02500000000003
 30
0.0
 10
-108.32850000000001
 20
409.02500000000003
 30
0.0
 10
-108.32850000000001
 20
402.95090000000005
 30
0.0
 10
-103.40260000000001
 20
398.02500000000003
 30
0.0
 10
-97.328500000000005
 20
398.02500000000003
 30
0.0
 10
-97.328500000000005
 20
398.02500000000003
 30
0.0
 10
-97.328500000000005
 20
398.02500000000003
 30
0.0
 10
-59.328500000000005
 20
398.02500000000003
 30
0.0
 10
-59.328500000000005
 20
398.02500000000003
 30
0.0
  0
ELLIPSE
  5
52
100
AcDbEntity
  8
Ebene 1
370
     5
100
AcDbEllipse
 10
-123.0635
 20
371.5155
 30
0.0
 11
0.0
 21
0.75
 31
0.0
210
0.0
220
0.0
230
1.0
 40
1.0
 41
0.0
 42
6.2831799999999998
  0
SPLINE
  5
53
100
AcDbEntity
  8
Ebene 1
370
     5
100
AcDbSpline
210
0.0
220
0.0
230
1.0
 70
     0
 71
     3
 72
     8
 73
     4
 74
     0
 42
0.0000000001
 43
0.0000000001
 40
0.0
 40
0.0
 40
0.0
 40
0.0
 40
1.0
 40
1.0
 40
1.0
 40
1.0
 10
-123.0635
 20
372.76560000000001
 30
0.0
 10
-123.0635
 20
372.76560000000001
 30
0.0
 10
-123.0635
 20
370.26560000000001
 30
0.0
 10
-123.0635
 20
370.26560000000001
 30
0.0
  0
SPLINE
  5
54
100
AcDbEntity
  8
Ebene 1
370
     5
100
AcDbSpline
210
0.0
220
0.0
230
1.0
 70
     0
 71
     3
 72
     8
 73
     4
 74
     0
 42
0.0000000001
 43
0.0000000001
 40
0.0
 40
0.0
 40
0.0
 40
0.0
 40
1.0
 40
1.0
 40
1.0
 40
1.0
 10
-124.3135
 20
371.51560000000001
 30
0.0
 10
-124.3135
 20
371.51560000000001
 30
0.0
 10
-121.8135
 20
371.51560000000001
 30
0.0
 10
-121.8135
 20
371.51560000000001
 30
0.0
  0
ELLIPSE
  5
55
100
AcDbEntity
  8
Ebene 1
370
     5
100
AcDbEllipse
 10
-295.4435
 20
394.5989
 30
0.0
 11
0.0
 21
0.75
 31
0.0
210
0.0
220
0.0
230
1.0
 40
1.0
 41
0.0
 42
6.2831799999999998
  0
SPLINE
  5
56
100
AcDbEntity
  8
Ebene 1
370
     5
100
AcDbSpline
210
0.0
220
0.0
230
1.0
 70
     0
 71
     3
 72
     8
 73
     4
 74
     0
 42
0.0000000001
 43
0.0000000001
 40
0.0
 40
0.0
 40
0.0
 40
0.0
 40
1.0
 40
1.0
 40
1.0
 40
1.0
 10
-295.44350000000003
 20
395.84900000000005
 30
0.0
 10
-295.44350000000003
 20
395.84900000000005
 30
0.0
 10
-295.44350000000003
 20
393.34900000000005
 30
0.0
 10
-295.44350000000003
 20
393.34900000000005
 30
0.0
  0
SPLINE
  5
57
100
AcDbEntity
  8
Ebene 1
370
     5
100
AcDbSpline
210
0.0
220
0.0
230
1.0
 70
     0
 71
     3
 72
     8
 73
     4
 74
     0
 42
0.0000000001
 43
0.0000000001
 40
0.0
 40
0.0
 40
0.0
 40
0.0
 40
1.0
 40
1.0
 40
1.0
 40
1.0
 10
-296.69350000000003
 20
394.59900000000005
 30
0.0
 10
-296.69350000000003
 20
394.59900000000005
 30
0.0
 10
-294.19350000000003
 20
394.59900000000005
 30
0.0
 10
-294.19350000000003
 20
394.59900000000005
 30
0.0
  0
SPLINE
  5
58
100
AcDbEntity
  8
Ebene 1
370
     5
100
AcDbSpline
210
0.0
220
0.0
230
1.0
 70
     0
 71
     3
 72
    12
 73
     8
 74
     0
 42
0.0000000001
 43
0.0000000001
 40
0.0
 40
0.0
 40
0.0
 40
0.0
 40
0.5
 40
0.5
 40
0.5
 40
0.5
 40
1.0
 40
1.0
 40
1.0
 40
1.0
 10
-277.2217
 20
245.29600000000002
 30
0.0
 10
-316.99290000000002
 20
246.51590000000002
 30
0.0
 10
-353.21690000000001
 20
238.43030000000002
 30
0.0
 10
-373.06350000000003
 20
223.4546
 30
0.0
 10
-373.06350000000003
 20
223.4546
 30
0.0
 10
-373.06350000000003
 20
223.4546
 30
0.0
 10
-373.0641
 20
198.4546
 30
0.0
 10
-373.0641
 20
198.4546
 30
0.0
  0
SPLINE
  5
59
100
AcDbEntity
  8
Ebene 1
370
     5
100
AcDbSpline
210
0.0
220
0.0
230
1.0
 70
     0
 71
     3
 72
     8
 73
     4
 74
     0
 42
0.0000000001
 43
0.0000000001
 40
0.0
 40
0.0
 40
0.0
 40
0.0
 40
1.0
 40
1.0
 40
1.0
 40
1.0
 10
226.91760000000002
 20
228.39530000000002
 30
0.0
 10
226.91760000000002
 20
228.39530000000002
 30
0.0
 10
-277.2217
 20
245.29600000000002
 30
0.0
 10
-277.2217
 20
245.29600000000002
 30
0.0
  0
SPLINE
  5
5A
100
AcDbEntity
  8
Ebene 1
370
     5
100
AcDbSpline
210
0.0
220
0.0
230
1.0
 70
     1
 71
     3
 72
    24
 73
    20
 74
     0
 42
0.0000000001
 43
0.0000000001
 40
0.0
 40
0.0
 40
0.0
 40
0.0
 40
0.2
 40
0.2
 40
0.2
 40
0.2
 40
0.4
 40
0.4
 40
0.4
 40
0.4
 40
0.6000000000000001
 40
0.6000000000000001
 40
0.6000000000000001
 40
0.6000000000000001
 40
0.8
 40
0.8
 40
0.8
 40
0.8
 40
1.0
 40
1.0
 40
1.0
 40
1.0
 10
-23.9986
 20
236.54840000000002
 30
0.0
 10
-23.9986
 20
236.54840000000002
 30
0.0
 10
-111.5766
 20
239.63060000000002
 30
0.0
 10
-111.5766
 20
239.63060000000002
 30
0.0
 10
-111.5766
 20
239.63060000000002
 30
0.0
 10
-111.5766
 20
239.63060000000002
 30
0.0
 10
-111.82850000000001
 20
306.60480000000001
 30
0.0
 10
-111.82850000000001
 20
306.60480000000001
 30
0.0
 10
-111.82850000000001
 20
306.60480000000001
 30
0.0
 10
-105.5391
 20
309.87790000000001
 30
0.0
 10
-97.193700000000007
 20
311.1728
 30
0.0
 10
-88.86160000000001
 20
311.39580000000001
 30
0.0
 10
-88.86160000000001
 20
311.39580000000001
 30
0.0
 10
-88.86160000000001
 20
311.39580000000001
 30
0.0
 10
-31.573700000000002
 20
311.25220000000002
 30
0.0
 10
-31.573700000000002
 20
311.25220000000002
 30
0.0
 10
-31.573700000000002
 20
311.25220000000002
 30
0.0
 10
-31.573700000000002
 20
311.25220000000002
 30
0.0
 10
-23.9986
 20
236.54840000000002
 30
0.0
 10
-23.9986
 20
236.54840000000002
 30
0.0
  0
SPLINE
  5
5B
100
AcDbEntity
  8
Ebene 1
370
     5
100
AcDbSpline
210
0.0
220
0.0
230
1.0
 70
     1
 71
     3
 72
    20
 73
    16
 74
     0
 42
0.0000000001
 43
0.0000000001
 40
0.0
 40
0.0
 40
0.0
 40
0.0
 40
0.25
 40
0.25
 40
0.25
 40
0.25
 40
0.5
 40
0.5
 40
0.5
 40
0.5
 40
0.75
 40
0.75
 40
0.75
 40
0.75
 40
1.0
 40
1.0
 40
1.0
 40
1.0
 10
-373.06350000000003
 20
199.8955
 30
0.0
 10
-373.06350000000003
 20
199.8955
 30
0.0
 10
-348.06350000000003
 20
199.8955
 30
0.0
 10
-348.06350000000003
 20
199.8955
 30
0.0
 10
-348.06350000000003
 20
199.8955
 30
0.0
 10
-348.06350000000003
 20
199.8955
 30
0.0
 10
-348.06350000000003
 20
196.89510000000001
 30
0.0
 10
-348.06350000000003
 20
196.89510000000001
 30
0.0
 10
-348.06350000000003
 20
196.89510000000001
 30
0.0
 10
-348.06350000000003
 20
196.89510000000001
 30
0.0
 10
-373.06350000000003
 20
196.89510000000001
 30
0.0
 10
-373.06350000000003
 20
196.89510000000001
 30
0.0
 10
-373.06350000000003
 20
196.89510000000001
 30
0.0
 10
-373.06350000000003
 20
196.89510000000001
 30
0.0
 10
-373.06350000000003
 20
199.8955
 30
0.0
 10
-373.06350000000003
 20
199.8955
 30
0.0
  0
SPLINE
  5
5C
100
AcDbEntity
  8
Ebene 1
370
     5
100
AcDbSpline
210
0.0
220
0.0
230
1.0
 70
     1
 71
     3
 72
    20
 73
    16
 74
     0
 42
0.0000000001
 43
0.0000000001
 40
0.0
 40
0.0
 40
0.0
 40
0.0
 40
0.25
 40
0.25
 40
0.25
 40
0.25
 40
0.5
 40
0.5
 40
0.5
 40
0.5
 40
0.75
 40
0.75
 40
0.75
 40
0.75
 40
1.0
 40
1.0
 40
1.0
 40
1.0
 10
-323.06350000000003
 20
199.8955
 30
0.0
 10
-323.06350000000003
 20
199.8955
 30
0.0
 10
-298.06350000000003
 20
199.8955
 30
0.0
 10
-298.06350000000003
 20
199.8955
 30
0.0
 10
-298.06350000000003
 20
199.8955
 30
0.0
 10
-298.06350000000003
 20
199.8955
 30
0.0
 10
-298.06350000000003
 20
196.89510000000001
 30
0.0
 10
-298.06350000000003
 20
196.89510000000001
 30
0.0
 10
-298.06350000000003
 20
196.89510000000001
 30
0.0
 10
-298.06350000000003
 20
196.89510000000001
 30
0.0
 10
-323.06350000000003
 20
196.89510000000001
 30
0.0
 10
-323.06350000000003
 20
196.89510000000001
 30
0.0
 10
-323.06350000000003
 20
196.89510000000001
 30
0.0
 10
-323.06350000000003
 20
196.89510000000001
 30
0.0
 10
-323.06350000000003
 20
199.8955
 30
0.0
 10
-323.06350000000003
 20
199.8955
 30
0.0
  0
SPLINE
  5
5D
100
AcDbEntity
  8
Ebene 1
370
     5
100
AcDbSpline
210
0.0
220
0.0
230
1.0
 70
     1
 71
     3
 72
    20
 73
    16
 74
     0
 42
0.0000000001
 43
0.0000000001
 40
0.0
 40
0.0
 40
0.0
 40
0.0
 40
0.25
 40
0.25
 40
0.25
 40
0.25
 40
0.5
 40
0.5
 40
0.5
 40
0.5
 40
0.75
 40
0.75
 40
0.75
 40
0.75
 40
1.0
 40
1.0
 40
1.0
 40
1.0
 10
-273.06350000000003
 20
199.8955
 30
0.0
 10
-273.06350000000003
 20
199.8955
 30
0.0
 10
-248.0635
 20
199.8955
 30
0.0
 10
-248.0635
 20
199.8955
 30
0.0
 10
-248.0635
 20
199.8955
 30
0.0
 10
-248.0635
 20
199.8955
 30
0.0
 10
-248.0635
 20
196.89510000000001
 30
0.0
 10
-248.0635
 20
196.89510000000001
 30
0.0
 10
-248.0635
 20
196.89510000000001
 30
0.0
 10
-248.0635
 20
196.89510000000001
 30
0.0
 10
-273.06350000000003
 20
196.89510000000001
 30
0.0
 10
-273.06350000000003
 20
196.89510000000001
 30
0.0
 10
-273.06350000000003
 20
196.89510000000001
 30
0.0
 10
-273.06350000000003
 20
196.89510000000001
 30
0.0
 10
-273.06350000000003
 20
199.8955
 30
0.0
 10
-273.06350000000003
 20
199.8955
 30
0.0
  0
SPLINE
  5
5E
100
AcDbEntity
  8
Ebene 1
370
     5
100
AcDbSpline
210
0.0
220
0.0
230
1.0
 70
     1
 71
     3
 72
    20
 73
    16
 74
     0
 42
0.0000000001
 43
0.0000000001
 40
0.0
 40
0.0
 40
0.0
 40
0.0
 40
0.25
 40
0.25
 40
0.25
 40
0.25
 40
0.5
 40
0.5
 40
0.5
 40
0.5
 40
0.75
 40
0.75
 40
0.75
 40
0.75
 40
1.0
 40
1.0
 40
1.0
 40
1.0
 10
-223.0635
 20
199.8955
 30
0.0
 10
-223.0635
 20
199.8955
 30
0.0
 10
-198.0635
 20
199.8955
 30
0.0
 10
-198.0635
 20
199.8955
 30
0.0
 10
-198.0635
 20
199.8955
 30
0.0
 10
-198.0635
 20
199.8955
 30
0.0
 10
-198.0635
 20
196.89510000000001
 30
0.0
 10
-198.0635
 20
196.89510000000001
 30
0.0
 10
-198.0635
 20
196.89510000000001
 30
0.0
 10
-198.0635
 20
196.89510000000001
 30
0.0
 10
-223.0635
 20
196.89510000000001
 30
0.0
 10
-223.0635
 20
196.89510000000001
 30
0.0
 10
-223.0635
 20
196.89510000000001
 30
0.0
 10
-223.0635
 20
196.89510000000001
 30
0.0
 10
-223.0635
 20
199.8955
 30
0.0
 10
-223.0635
 20
199.8955
 30
0.0
  0
SPLINE
  5
5F
100
AcDbEntity
  8
Ebene 1
370
     5
100
AcDbSpline
210
0.0
220
0.0
230
1.0
 70
     1
 71
     3
 72
    20
 73
    16
 74
     0
 42
0.0000000001
 43
0.0000000001
 40
0.0
 40
0.0
 40
0.0
 40
0.0
 40
0.25
 40
0.25
 40
0.25
 40
0.25
 40
0.5
 40
0.5
 40
0.5
 40
0.5
 40
0.75
 40
0.75
 40
0.75
 40
0.75
 40
1.0
 40
1.0
 40
1.0
 40
1.0
 10
-173.0635
 20
199.8955
 30
0.0
 10
-173.0635
 20
199.8955
 30
0.0
 10
-148.0635
 20
199.8955
 30
0.0
 10
-148.0635
 20
199.8955
 30
0.0
 10
-148.0635
 20
199.8955
 30
0.0
 10
-148.0635
 20
199.8955
 30
0.0
 10
-148.0635
 20
196.89510000000001
 30
0.0
 10
-148.0635
 20
196.89510000000001
 30
0.0
 10
-148.0635
 20
196.89510000000001
 30
0.0
 10
-148.0635
 20
196.89510000000001
 30
0.0
 10
-173.0635
 20
196.89510000000001
 30
0.0
 10
-173.0635
 20
196.89510000000001
 30
0.0
 10
-173.0635
 20
196.89510000000001
 30
0.0
 10
-173.0635
 20
196.89510000000001
 30
0.0
 10
-173.0635
 20
199.8955
 30
0.0
 10
-173.0635
 20
199.8955
 30
0.0
  0
SPLINE
  5
60
100
AcDbEntity
  8
Ebene 1
370
     5
100
AcDbSpline
210
0.0
220
0.0
230
1.0
 70
     1
 71
     3
 72
    20
 73
    16
 74
     0
 42
0.0000000001
 43
0.0000000001
 40
0.0
 40
0.0
 40
0.0
 40
0.0
 40
0.25
 40
0.25
 40
0.25
 40
0.25
 40
0.5
 40
0.5
 40
0.5
 40
0.5
 40
0.75
 40
0.75
 40
0.75
 40
0.75
 40
1.0
 40
1.0
 40
1.0
 40
1.0
 10
-123.0635
 20
199.8955
 30
0.0
 10
-123.0635
 20
199.8955
 30
0.0
 10
-98.063500000000005
 20
199.8955
 30
0.0
 10
-98.063500000000005
 20
199.8955
 30
0.0
 10
-98.063500000000005
 20
199.8955
 30
0.0
 10
-98.063500000000005
 20
199.8955
 30
0.0
 10
-98.063500000000005
 20
196.89510000000001
 30
0.0
 10
-98.063500000000005
 20
196.89510000000001
 30
0.0
 10
-98.063500000000005
 20
196.89510000000001
 30
0.0
 10
-98.063500000000005
 20
196.89510000000001
 30
0.0
 10
-123.0635
 20
196.89510000000001
 30
0.0
 10
-123.0635
 20
196.89510000000001
 30
0.0
 10
-123.0635
 20
196.89510000000001
 30
0.0
 10
-123.0635
 20
196.89510000000001
 30
0.0
 10
-123.0635
 20
199.8955
 30
0.0
 10
-123.0635
 20
199.8955
 30
0.0
  0
SPLINE
  5
61
100
AcDbEntity
  8
Ebene 1
370
     5
100
AcDbSpline
210
0.0
220
0.0
230
1.0
 70
     1
 71
     3
 72
    20
 73
    16
 74
     0
 42
0.0000000001
 43
0.0000000001
 40
0.0
 40
0.0
 40
0.0
 40
0.0
 40
0.25
 40
0.25
 40
0.25
 40
0.25
 40
0.5
 40
0.5
 40
0.5
 40
0.5
 40
0.75
 40
0.75
 40
0.75
 40
0.75
 40
1.0
 40
1.0
 40
1.0
 40
1.0
 10
-73.063500000000005
 20
199.8955
 30
0.0
 10
-73.063500000000005
 20
199.8955
 30
0.0
 10
-48.063500000000005
 20
199.8955
 30
0.0
 10
-48.063500000000005
 20
199.8955
 30
0.0
 10
-48.063500000000005
 20
199.8955
 30
0.0
 10
-48.063500000000005
 20
199.8955
 30
0.0
 10
-48.063500000000005
 20
196.89510000000001
 30
0.0
 10
-48.063500000000005
 20
196.89510000000001
 30
0.0
 10
-48.063500000000005
 20
196.89510000000001
 30
0.0
 10
-48.063500000000005
 20
196.89510000000001
 30
0.0
 10
-73.063500000000005
 20
196.89510000000001
 30
0.0
 10
-73.063500000000005
 20
196.89510000000001
 30
0.0
 10
-73.063500000000005
 20
196.89510000000001
 30
0.0
 10
-73.063500000000005
 20
196.89510000000001
 30
0.0
 10
-73.063500000000005
 20
199.8955
 30
0.0
 10
-73.063500000000005
 20
199.8955
 30
0.0
  0
SPLINE
  5
62
100
AcDbEntity
  8
Ebene 1
370
     5
100
AcDbSpline
210
0.0
220
0.0
230
1.0
 70
     1
 71
     3
 72
    20
 73
    16
 74
     0
 42
0.0000000001
 43
0.0000000001
 40
0.0
 40
0.0
 40
0.0
 40
0.0
 40
0.25
 40
0.25
 40
0.25
 40
0.25
 40
0.5
 40
0.5
 40
0.5
 40
0.5
 40
0.75
 40
0.75
 40
0.75
 40
0.75
 40
1.0
 40
1.0
 40
1.0
 40
1.0
 10
-23.063500000000001
 20
199.8955
 30
0.0
 10
-23.063500000000001
 20
199.8955
 30
0.0
 10
1.9365000000000001
 20
199.8955
 30
0.0
 10
1.9365000000000001
 20
199.8955
 30
0.0
 10
1.9365000000000001
 20
199.8955
 30
0.0
 10
1.9365000000000001
 20
199.8955
 30
0.0
 10
1.9365000000000001
 20
196.89510000000001
 30
0.0
 10
1.9365000000000001
 20
196.89510000000001
 30
0.0
 10
1.9365000000000001
 20
196.89510000000001
 30
0.0
 10
1.9365000000000001
 20
196.89510000000001
 30
0.0
 10
-23.063500000000001
 20
196.89510000000001
 30
0.0
 10
-23.063500000000001
 20
196.89510000000001
 30
0.0
 10
-23.063500000000001
 20
196.89510000000001
 30
0.0
 10
-23.063500000000001
 20
196.89510000000001
 30
0.0
 10
-23.063500000000001
 20
199.8955
 30
0.0
 10
-23.063500000000001
 20
199.8955
 30
0.0
  0
SPLINE
  5
63
100
AcDbEntity
  8
Ebene 1
370
     5
100
AcDbSpline
210
0.0
220
0.0
230
1.0
 70
     1
 71
     3
 72
    20
 73
    16
 74
     0
 42
0.0000000001
 43
0.0000000001
 40
0.0
 40
0.0
 40
0.0
 40
0.0
 40
0.25
 40
0.25
 40
0.25
 40
0.25
 40
0.5
 40
0.5
 40
0.5
 40
0.5
 40
0.75
 40
0.75
 40
0.75
 40
0.75
 40
1.0
 40
1.0
 40
1.0
 40
1.0
 10
26.936500000000002
 20
199.8955
 30
0.0
 10
26.936500000000002
 20
199.8955
 30
0.0
 10
51.936500000000002
 20
199.8955
 30
0.0
 10
51.936500000000002
 20
199.8955
 30
0.0
 10
51.936500000000002
 20
199.8955
 30
0.0
 10
51.936500000000002
 20
199.8955
 30
0.0
 10
51.936500000000002
 20
196.89510000000001
 30
0.0
 10
51.936500000000002
 20
196.89510000000001
 30
0.0
 10
51.936500000000002
 20
196.89510000000001
 30
0.0
 10
51.936500000000002
 20
196.89510000000001
 30
0.0
 10
26.936500000000002
 20
196.89510000000001
 30
0.0
 10
26.936500000000002
 20
196.89510000000001
 30
0.0
 10
26.936500000000002
 20
196.89510000000001
 30
0.0
 10
26.936500000000002
 20
196.89510000000001
 30
0.0
 10
26.936500000000002
 20
199.8955
 30
0.0
 10
26.936500000000002
 20
199.8955
 30
0.0
  0
SPLINE
  5
64
100
AcDbEntity
  8
Ebene 1
370
     5
100
AcDbSpline
210
0.0
220
0.0
230
1.0
 70
     1
 71
     3
 72
    20
 73
    16
 74
     0
 42
0.0000000001
 43
0.0000000001
 40
0.0
 40
0.0
 40
0.0
 40
0.0
 40
0.25
 40
0.25
 40
0.25
 40
0.25
 40
0.5
 40
0.5
 40
0.5
 40
0.5
 40
0.75
 40
0.75
 40
0.75
 40
0.75
 40
1.0
 40
1.0
 40
1.0
 40
1.0
 10
76.936500000000009
 20
199.8955
 30
0.0
 10
76.936500000000009
 20
199.8955
 30
0.0
 10
101.93650000000001
 20
199.8955
 30
0.0
 10
101.93650000000001
 20
199.8955
 30
0.0
 10
101.93650000000001
 20
199.8955
 30
0.0
 10
101.93650000000001
 20
199.8955
 30
0.0
 10
101.93650000000001
 20
196.89510000000001
 30
0.0
 10
101.93650000000001
 20
196.89510000000001
 30
0.0
 10
101.93650000000001
 20
196.89510000000001
 30
0.0
 10
101.93650000000001
 20
196.89510000000001
 30
0.0
 10
76.936500000000009
 20
196.89510000000001
 30
0.0
 10
76.936500000000009
 20
196.89510000000001
 30
0.0
 10
76.936500000000009
 20
196.89510000000001
 30
0.0
 10
76.936500000000009
 20
196.89510000000001
 30
0.0
 10
76.936500000000009
 20
199.8955
 30
0.0
 10
76.936500000000009
 20
199.8955
 30
0.0
  0
SPLINE
  5
65
100
AcDbEntity
  8
Ebene 1
370
     5
100
AcDbSpline
210
0.0
220
0.0
230
1.0
 70
     1
 71
     3
 72
    20
 73
    16
 74
     0
 42
0.0000000001
 43
0.0000000001
 40
0.0
 40
0.0
 40
0.0
 40
0.0
 40
0.25
 40
0.25
 40
0.25
 40
0.25
 40
0.5
 40
0.5
 40
0.5
 40
0.5
 40
0.75
 40
0.75
 40
0.75
 40
0.75
 40
1.0
 40
1.0
 40
1.0
 40
1.0
 10
126.93650000000001
 20
199.8955
 30
0.0
 10
126.93650000000001
 20
199.8955
 30
0.0
 10
151.9365
 20
199.8955
 30
0.0
 10
151.9365
 20
199.8955
 30
0.0
 10
151.9365
 20
199.8955
 30
0.0
 10
151.9365
 20
199.8955
 30
0.0
 10
151.9365
 20
196.89510000000001
 30
0.0
 10
151.9365
 20
196.89510000000001
 30
0.0
 10
151.9365
 20
196.89510000000001
 30
0.0
 10
151.9365
 20
196.89510000000001
 30
0.0
 10
126.93650000000001
 20
196.89510000000001
 30
0.0
 10
126.93650000000001
 20
196.89510000000001
 30
0.0
 10
126.93650000000001
 20
196.89510000000001
 30
0.0
 10
126.93650000000001
 20
196.89510000000001
 30
0.0
 10
126.93650000000001
 20
199.8955
 30
0.0
 10
126.93650000000001
 20
199.8955
 30
0.0
  0
SPLINE
  5
66
100
AcDbEntity
  8
Ebene 1
370
     5
100
AcDbSpline
210
0.0
220
0.0
230
1.0
 70
     1
 71
     3
 72
    20
 73
    16
 74
     0
 42
0.0000000001
 43
0.0000000001
 40
0.0
 40
0.0
 40
0.0
 40
0.0
 40
0.25
 40
0.25
 40
0.25
 40
0.25
 40
0.5
 40
0.5
 40
0.5
 40
0.5
 40
0.75
 40
0.75
 40
0.75
 40
0.75
 40
1.0
 40
1.0
 40
1.0
 40
1.0
 10
176.9365
 20
199.8955
 30
0.0
 10
176.9365
 20
199.8955
 30
0.0
 10
201.93650000000002
 20
199.8955
 30
0.0
 10
201.93650000000002
 20
199.8955
 30
0.0
 10
201.93650000000002
 20
199.8955
 30
0.0
 10
201.93650000000002
 20
199.8955
 30
0.0
 10
201.93650000000002
 20
196.89510000000001
 30
0.0
 10
201.93650000000002
 20
196.89510000000001
 30
0.0
 10
201.93650000000002
 20
196.89510000000001
 30
0.0
 10
201.93650000000002
 20
196.89510000000001
 30
0.0
 10
176.9365
 20
196.89510000000001
 30
0.0
 10
176.9365
 20
196.89510000000001
 30
0.0
 10
176.9365
 20
196.89510000000001
 30
0.0
 10
176.9365
 20
196.89510000000001
 30
0.0
 10
176.9365
 20
199.8955
 30
0.0
 10
176.9365
 20
199.8955
 30
0.0
  0
SPLINE
  5
67
100
AcDbEntity
  8
Ebene 1
370
     5
100
AcDbSpline
210
0.0
220
0.0
230
1.0
 70
     0
 71
     3
 72
    16
 73
    12
 74
     0
 42
0.0000000001
 43
0.0000000001
 40
0.0
 40
0.0
 40
0.0
 40
0.0
 40
0.3333333333333333
 40
0.3333333333333333
 40
0.3333333333333333
 40
0.3333333333333333
 40
0.6666666666666666
 40
0.6666666666666666
 40
0.6666666666666666
 40
0.6666666666666666
 40
1.0
 40
1.0
 40
1.0
 40
1.0
 10
-211.0497
 20
243.03290000000001
 30
0.0
 10
-203.92790000000002
 20
244.0369
 30
0.0
 10
-165.84810000000002
 20
245.68630000000002
 30
0.0
 10
-150.55710000000002
 20
265.59629999999999
 30
0.0
 10
-150.55710000000002
 20
265.59629999999999
 30
0.0
 10
-150.55710000000002
 20
265.59629999999999
 30
0.0
 10
-137.30010000000001
 20
283.5908
 30
0.0
 10
-137.30010000000001
 20
283.5908
 30
0.0
 10
-137.30010000000001
 20
283.5908
 30
0.0
 10
-132.30260000000001
 20
290.71800000000002
 30
0.0
 10
-121.96770000000001
 20
301.36070000000001
 30
0.0
 10
-111.82850000000001
 20
306.60480000000001
 30
0.0
  0
SPLINE
  5
68
100
AcDbEntity
  8
Ebene 1
370
     5
100
AcDbSpline
210
0.0
220
0.0
230
1.0
 70
     0
 71
     3
 72
    12
 73
     8
 74
     0
 42
0.0000000001
 43
0.0000000001
 40
0.0
 40
0.0
 40
0.0
 40
0.0
 40
0.5
 40
0.5
 40
0.5
 40
0.5
 40
1.0
 40
1.0
 40
1.0
 40
1.0
 10
226.91760000000002
 20
228.39530000000002
 30
0.0
 10
226.91760000000002
 20
228.39530000000002
 30
0.0
 10
211.93680000000001
 20
199.8955
 30
0.0
 10
211.93680000000001
 20
199.8955
 30
0.0
 10
211.93680000000001
 20
199.8955
 30
0.0
 10
211.93680000000001
 20
199.8955
 30
0.0
 10
211.93680000000001
 20
197.0137
 30
0.0
 10
211.93680000000001
 20
197.0137
 30
0.0
  0
SPLINE
  5
69
100
AcDbEntity
  8
Ebene 1
370
     5
100
AcDbSpline
210
0.0
220
0.0
230
1.0
 70
     0
 71
     3
 72
    12
 73
     8
 74
     0
 42
0.0000000001
 43
0.0000000001
 40
0.0
 40
0.0
 40
0.0
 40
0.0
 40
0.5
 40
0.5
 40
0.5
 40
0.5
 40
1.0
 40
1.0
 40
1.0
 40
1.0
 10
-277.2217
 20
151.61320000000001
 30
0.0
 10
-316.99290000000002
 20
150.39330000000001
 30
0.0
 10
-353.21690000000001
 20
158.47890000000001
 30
0.0
 10
-373.06350000000003
 20
173.4546
 30
0.0
 10
-373.06350000000003
 20
173.4546
 30
0.0
 10
-373.06350000000003
 20
173.4546
 30
0.0
 10
-373.0641
 20
198.4546
 30
0.0
 10
-373.0641
 20
198.4546
 30
0.0
  0
SPLINE
  5
6A
100
AcDbEntity
  8
Ebene 1
370
     5
100
AcDbSpline
210
0.0
220
0.0
230
1.0
 70
     0
 71
     3
 72
     8
 73
     4
 74
     0
 42
0.0000000001
 43
0.0000000001
 40
0.0
 40
0.0
 40
0.0
 40
0.0
 40
1.0
 40
1.0
 40
1.0
 40
1.0
 10
226.91760000000002
 20
168.51390000000001
 30
0.0
 10
226.91760000000002
 20
168.51390000000001
 30
0.0
 10
-277.2217
 20
151.61320000000001
 30
0.0
 10
-277.2217
 20
151.61320000000001
 30
0.0
  0
SPLINE
  5
6B
100
AcDbEntity
  8
Ebene 1
370
     5
100
AcDbSpline
210
0.0
220
0.0
230
1.0
 70
     0
 71
     3
 72
     8
 73
     4
 74
     0
 42
0.0000000001
 43
0.0000000001
 40
0.0
 40
0.0
 40
0.0
 40
0.0
 40
1.0
 40
1.0
 40
1.0
 40
1.0
 10
226.91760000000002
 20
168.51390000000001
 30
0.0
 10
226.91760000000002
 20
168.51390000000001
 30
0.0
 10
211.93680000000001
 20
197.0137
 30
0.0
 10
211.93680000000001
 20
197.0137
 30
0.0
  0
SPLINE
  5
6C
100
AcDbEntity
  8
Ebene 1
370
     5
100
AcDbSpline
210
0.0
220
0.0
230
1.0
 70
     1
 71
     3
 72
    24
 73
    20
 74
     0
 42
0.0000000001
 43
0.0000000001
 40
0.0
 40
0.0
 40
0.0
 40
0.0
 40
0.2
 40
0.2
 40
0.2
 40
0.2
 40
0.4
 40
0.4
 40
0.4
 40
0.4
 40
0.6000000000000001
 40
0.6000000000000001
 40
0.6000000000000001
 40
0.6000000000000001
 40
0.8
 40
0.8
 40
0.8
 40
0.8
 40
1.0
 40
1.0
 40
1.0
 40
1.0
 10
-23.9986
 20
160.36080000000001
 30
0.0
 10
-23.9986
 20
160.36080000000001
 30
0.0
 10
-111.5766
 20
157.27860000000001
 30
0.0
 10
-111.5766
 20
157.27860000000001
 30
0.0
 10
-111.5766
 20
157.27860000000001
 30
0.0
 10
-111.5766
 20
157.27860000000001
 30
0.0
 10
-111.82850000000001
 20
90.304400000000001
 30
0.0
 10
-111.82850000000001
 20
90.304400000000001
 30
0.0
 10
-111.82850000000001
 20
90.304400000000001
 30
0.0
 10
-105.5391
 20
87.031300000000002
 30
0.0
 10
-97.193700000000007
 20
85.736400000000003
 30
0.0
 10
-88.86160000000001
 20
85.513400000000004
 30
0.0
 10
-88.86160000000001
 20
85.513400000000004
 30
0.0
 10
-88.86160000000001
 20
85.513400000000004
 30
0.0
 10
-31.573700000000002
 20
85.657000000000011
 30
0.0
 10
-31.573700000000002
 20
85.657000000000011
 30
0.0
 10
-31.573700000000002
 20
85.657000000000011
 30
0.0
 10
-31.573700000000002
 20
85.657000000000011
 30
0.0
 10
-23.9986
 20
160.36080000000001
 30
0.0
 10
-23.9986
 20
160.36080000000001
 30
0.0
  0
SPLINE
  5
6D
100
AcDbEntity
  8
Ebene 1
370
     5
100
AcDbSpline
210
0.0
220
0.0
230
1.0
 70
     0
 71
     3
 72
    16
 73
    12
 74
     0
 42
0.0000000001
 43
0.0000000001
 40
0.0
 40
0.0
 40
0.0
 40
0.0
 40
0.3333333333333333
 40
0.3333333333333333
 40
0.3333333333333333
 40
0.3333333333333333
 40
0.6666666666666666
 40
0.6666666666666666
 40
0.6666666666666666
 40
0.6666666666666666
 40
1.0
 40
1.0
 40
1.0
 40
1.0
 10
-211.0497
 20
153.87630000000001
 30
0.0
 10
-203.92790000000002
 20
152.8723
 30
0.0
 10
-165.84810000000002
 20
151.22290000000001
 30
0.0
 10
-150.55710000000002
 20
131.31290000000001
 30
0.0
 10
-150.55710000000002
 20
131.31290000000001
 30
0.0
 10
-150.55710000000002
 20
131.31290000000001
 30
0.0
 10
-137.30010000000001
 20
113.31840000000001
 30
0.0
 10
-137.30010000000001
 20
113.31840000000001
 30
0.0
 10
-137.30010000000001
 20
113.31840000000001
 30
0.0
 10
-132.30260000000001
 20
106.19120000000001
 30
0.0
 10
-121.96770000000001
 20
95.548500000000004
 30
0.0
 10
-111.82850000000001
 20
90.304400000000001
 30
0.0
  0
SPLINE
  5
6E
100
AcDbEntity
  8
Ebene 1
370
     5
100
AcDbSpline
210
0.0
220
0.0
230
1.0
 70
     0
 71
     3
 72
     8
 73
     4
 74
     0
 42
0.0000000001
 43
0.0000000001
 40
0.0
 40
0.0
 40
0.0
 40
0.0
 40
1.0
 40
1.0
 40
1.0
 40
1.0
 10
-348.06350000000003
 20
196.89510000000001
 30
0.0
 10
-348.06350000000003
 20
196.89510000000001
 30
0.0
 10
-323.06350000000003
 20
196.89510000000001
 30
0.0
 10
-323.06350000000003
 20
196.89510000000001
 30
0.0
  0
SPLINE
  5
6F
100
AcDbEntity
  8
Ebene 1
370
     5
100
AcDbSpline
210
0.0
220
0.0
230
1.0
 70
     0
 71
     3
 72
     8
 73
     4
 74
     0
 42
0.0000000001
 43
0.0000000001
 40
0.0
 40
0.0
 40
0.0
 40
0.0
 40
1.0
 40
1.0
 40
1.0
 40
1.0
 10
-298.06350000000003
 20
199.8955
 30
0.0
 10
-298.06350000000003
 20
199.8955
 30
0.0
 10
-273.06350000000003
 20
199.8955
 30
0.0
 10
-273.06350000000003
 20
199.8955
 30
0.0
  0
SPLINE
  5
70
100
AcDbEntity
  8
Ebene 1
370
     5
100
AcDbSpline
210
0.0
220
0.0
230
1.0
 70
     0
 71
     3
 72
     8
 73
     4
 74
     0
 42
0.0000000001
 43
0.0000000001
 40
0.0
 40
0.0
 40
0.0
 40
0.0
 40
1.0
 40
1.0
 40
1.0
 40
1.0
 10
-248.0635
 20
196.89510000000001
 30
0.0
 10
-248.0635
 20
196.89510000000001
 30
0.0
 10
-223.0635
 20
196.89510000000001
 30
0.0
 10
-223.0635
 20
196.89510000000001
 30
0.0
  0
SPLINE
  5
71
100
AcDbEntity
  8
Ebene 1
370
     5
100
AcDbSpline
210
0.0
220
0.0
230
1.0
 70
     0
 71
     3
 72
     8
 73
     4
 74
     0
 42
0.0000000001
 43
0.0000000001
 40
0.0
 40
0.0
 40
0.0
 40
0.0
 40
1.0
 40
1.0
 40
1.0
 40
1.0
 10
-198.0635
 20
199.8955
 30
0.0
 10
-198.0635
 20
199.8955
 30
0.0
 10
-173.0635
 20
199.8955
 30
0.0
 10
-173.0635
 20
199.8955
 30
0.0
  0
SPLINE
  5
72
100
AcDbEntity
  8
Ebene 1
370
     5
100
AcDbSpline
210
0.0
220
0.0
230
1.0
 70
     0
 71
     3
 72
     8
 73
     4
 74
     0
 42
0.0000000001
 43
0.0000000001
 40
0.0
 40
0.0
 40
0.0
 40
0.0
 40
1.0
 40
1.0
 40
1.0
 40
1.0
 10
-148.0635
 20
196.89510000000001
 30
0.0
 10
-148.0635
 20
196.89510000000001
 30
0.0
 10
-123.0635
 20
196.89510000000001
 30
0.0
 10
-123.0635
 20
196.89510000000001
 30
0.0
  0
SPLINE
  5
73
100
AcDbEntity
  8
Ebene 1
370
     5
100
AcDbSpline
210
0.0
220
0.0
230
1.0
 70
     0
 71
     3
 72
     8
 73
     4
 74
     0
 42
0.0000000001
 43
0.0000000001
 40
0.0
 40
0.0
 40
0.0
 40
0.0
 40
1.0
 40
1.0
 40
1.0
 40
1.0
 10
-98.063500000000005
 20
199.8955
 30
0.0
 10
-98.063500000000005
 20
199.8955
 30
0.0
 10
-73.063500000000005
 20
199.8955
 30
0.0
 10
-73.063500000000005
 20
199.8955
 30
0.0
  0
SPLINE
  5
74
100
AcDbEntity
  8
Ebene 1
370
     5
100
AcDbSpline
210
0.0
220
0.0
230
1.0
 70
     0
 71
     3
 72
     8
 73
     4
 74
     0
 42
0.0000000001
 43
0.0000000001
 40
0.0
 40
0.0
 40
0.0
 40
0.0
 40
1.0
 40
1.0
 40
1.0
 40
1.0
 10
-48.063500000000005
 20
196.89510000000001
 30
0.0
 10
-48.063500000000005
 20
196.89510000000001
 30
0.0
 10
-23.063500000000001
 20
196.89510000000001
 30
0.0
 10
-23.063500000000001
 20
196.89510000000001
 30
0.0
  0
SPLINE
  5
75
100
AcDbEntity
  8
Ebene 1
370
     5
100
AcDbSpline
210
0.0
220
0.0
230
1.0
 70
     0
 71
     3
 72
     8
 73
     4
 74
     0
 42
0.0000000001
 43
0.0000000001
 40
0.0
 40
0.0
 40
0.0
 40
0.0
 40
1.0
 40
1.0
 40
1.0
 40
1.0
 10
1.9365000000000001
 20
199.8955
 30
0.0
 10
1.9365000000000001
 20
199.8955
 30
0.0
 10
26.936500000000002
 20
199.8955
 30
0.0
 10
26.936500000000002
 20
199.8955
 30
0.0
  0
SPLINE
  5
76
100
AcDbEntity
  8
Ebene 1
370
     5
100
AcDbSpline
210
0.0
220
0.0
230
1.0
 70
     0
 71
     3
 72
     8
 73
     4
 74
     0
 42
0.0000000001
 43
0.0000000001
 40
0.0
 40
0.0
 40
0.0
 40
0.0
 40
1.0
 40
1.0
 40
1.0
 40
1.0
 10
51.936500000000002
 20
196.89510000000001
 30
0.0
 10
51.936500000000002
 20
196.89510000000001
 30
0.0
 10
76.936500000000009
 20
196.89510000000001
 30
0.0
 10
76.936500000000009
 20
196.89510000000001
 30
0.0
  0
SPLINE
  5
77
100
AcDbEntity
  8
Ebene 1
370
     5
100
AcDbSpline
210
0.0
220
0.0
230
1.0
 70
     0
 71
     3
 72
     8
 73
     4
 74
     0
 42
0.0000000001
 43
0.0000000001
 40
0.0
 40
0.0
 40
0.0
 40
0.0
 40
1.0
 40
1.0
 40
1.0
 40
1.0
 10
101.93650000000001
 20
199.8955
 30
0.0
 10
101.93650000000001
 20
199.8955
 30
0.0
 10
126.93650000000001
 20
199.8955
 30
0.0
 10
126.93650000000001
 20
199.8955
 30
0.0
  0
SPLINE
  5
78
100
AcDbEntity
  8
Ebene 1
370
     5
100
AcDbSpline
210
0.0
220
0.0
230
1.0
 70
     0
 71
     3
 72
     8
 73
     4
 74
     0
 42
0.0000000001
 43
0.0000000001
 40
0.0
 40
0.0
 40
0.0
 40
0.0
 40
1.0
 40
1.0
 40
1.0
 40
1.0
 10
151.9365
 20
196.89510000000001
 30
0.0
 10
151.9365
 20
196.89510000000001
 30
0.0
 10
176.9365
 20
196.89510000000001
 30
0.0
 10
176.9365
 20
196.89510000000001
 30
0.0
  0
ELLIPSE
  5
79
100
AcDbEntity
  8
Ebene 1
370
     5
100
AcDbEllipse
 10
-313.0641
 20
223.4545
 30
0.0
 11
0.0
 21
0.75
 31
0.0
210
0.0
220
0.0
230
1.0
 40
1.0
 41
0.0
 42
6.2831799999999998
  0
SPLINE
  5
7A
100
AcDbEntity
  8
Ebene 1
370
     5
100
AcDbSpline
210
0.0
220
0.0
230
1.0
 70
     0
 71
     3
 72
     8
 73
     4
 74
     0
 42
0.0000000001
 43
0.0000000001
 40
0.0
 40
0.0
 40
0.0
 40
0.0
 40
1.0
 40
1.0
 40
1.0
 40
1.0
 10
-313.0641
 20
224.7046
 30
0.0
 10
-313.0641
 20
224.7046
 30
0.0
 10
-313.0641
 20
222.2046
 30
0.0
 10
-313.0641
 20
222.2046
 30
0.0
  0
SPLINE
  5
7B
100
AcDbEntity
  8
Ebene 1
370
     5
100
AcDbSpline
210
0.0
220
0.0
230
1.0
 70
     0
 71
     3
 72
     8
 73
     4
 74
     0
 42
0.0000000001
 43
0.0000000001
 40
0.0
 40
0.0
 40
0.0
 40
0.0
 40
1.0
 40
1.0
 40
1.0
 40
1.0
 10
-314.3141
 20
223.4546
 30
0.0
 10
-314.3141
 20
223.4546
 30
0.0
 10
-311.8141
 20
223.4546
 30
0.0
 10
-311.8141
 20
223.4546
 30
0.0
  0
ELLIPSE
  5
7C
100
AcDbEntity
  8
Ebene 1
370
     5
100
AcDbEllipse
 10
-313.0641
 20
172.7046
 30
0.0
 11
0.0
 21
0.75
 31
0.0
210
0.0
220
0.0
230
1.0
 40
1.0
 41
0.0
 42
6.2831799999999998
  0
SPLINE
  5
7D
100
AcDbEntity
  8
Ebene 1
370
     5
100
AcDbSpline
210
0.0
220
0.0
230
1.0
 70
     0
 71
     3
 72
     8
 73
     4
 74
     0
 42
0.0000000001
 43
0.0000000001
 40
0.0
 40
0.0
 40
0.0
 40
0.0
 40
1.0
 40
1.0
 40
1.0
 40
1.0
 10
-313.0641
 20
173.9547
 30
0.0
 10
-313.0641
 20
173.9547
 30
0.0
 10
-313.0641
 20
171.4547
 30
0.0
 10
-313.0641
 20
171.4547
 30
0.0
  0
SPLINE
  5
7E
100
AcDbEntity
  8
Ebene 1
370
     5
100
AcDbSpline
210
0.0
220
0.0
230
1.0
 70
     0
 71
     3
 72
     8
 73
     4
 74
     0
 42
0.0000000001
 43
0.0000000001
 40
0.0
 40
0.0
 40
0.0
 40
0.0
 40
1.0
 40
1.0
 40
1.0
 40
1.0
 10
-314.3141
 20
172.7047
 30
0.0
 10
-314.3141
 20
172.7047
 30
0.0
 10
-311.8141
 20
172.7047
 30
0.0
 10
-311.8141
 20
172.7047
 30
0.0
  0
ELLIPSE
  5
7F
100
AcDbEntity
  8
Ebene 1
370
     5
100
AcDbEllipse
 10
-136.7025
 20
279.3448
 30
0.0
 11
0.0
 21
0.75
 31
0.0
210
0.0
220
0.0
230
1.0
 40
1.0
 41
0.0
 42
6.2831799999999998
  0
SPLINE
  5
80
100
AcDbEntity
  8
Ebene 1
370
     5
100
AcDbSpline
210
0.0
220
0.0
230
1.0
 70
     0
 71
     3
 72
     8
 73
     4
 74
     0
 42
0.0000000001
 43
0.0000000001
 40
0.0
 40
0.0
 40
0.0
 40
0.0
 40
1.0
 40
1.0
 40
1.0
 40
1.0
 10
-136.70250000000001
 20
280.5949
 30
0.0
 10
-136.70250000000001
 20
280.5949
 30
0.0
 10
-136.70250000000001
 20
278.0949
 30
0.0
 10
-136.70250000000001
 20
278.0949
 30
0.0
  0
SPLINE
  5
81
100
AcDbEntity
  8
Ebene 1
370
     5
100
AcDbSpline
210
0.0
220
0.0
230
1.0
 70
     0
 71
     3
 72
     8
 73
     4
 74
     0
 42
0.0000000001
 43
0.0000000001
 40
0.0
 40
0.0
 40
0.0
 40
0.0
 40
1.0
 40
1.0
 40
1.0
 40
1.0
 10
-137.95250000000001
 20
279.3449
 30
0.0
 10
-137.95250000000001
 20
279.3449
 30
0.0
 10
-135.45250000000001
 20
279.3449
 30
0.0
 10
-135.45250000000001
 20
279.3449
 30
0.0
  0
ELLIPSE
  5
82
100
AcDbEntity
  8
Ebene 1
370
     5
100
AcDbEllipse
 10
-136.7025
 20
117.5642
 30
0.0
 11
0.0
 21
0.75
 31
0.0
210
0.0
220
0.0
230
1.0
 40
1.0
 41
0.0
 42
6.2831799999999998
  0
SPLINE
  5
83
100
AcDbEntity
  8
Ebene 1
370
     5
100
AcDbSpline
210
0.0
220
0.0
230
1.0
 70
     0
 71
     3
 72
     8
 73
     4
 74
     0
 42
0.0000000001
 43
0.0000000001
 40
0.0
 40
0.0
 40
0.0
 40
0.0
 40
1.0
 40
1.0
 40
1.0
 40
1.0
 10
-136.70250000000001
 20
118.8143
 30
0.0
 10
-136.70250000000001
 20
118.8143
 30
0.0
 10
-136.70250000000001
 20
116.3143
 30
0.0
 10
-136.70250000000001
 20
116.3143
 30
0.0
  0
SPLINE
  5
84
100
AcDbEntity
  8
Ebene 1
370
     5
100
AcDbSpline
210
0.0
220
0.0
230
1.0
 70
     0
 71
     3
 72
     8
 73
     4
 74
     0
 42
0.0000000001
 43
0.0000000001
 40
0.0
 40
0.0
 40
0.0
 40
0.0
 40
1.0
 40
1.0
 40
1.0
 40
1.0
 10
-137.95250000000001
 20
117.5643
 30
0.0
 10
-137.95250000000001
 20
117.5643
 30
0.0
 10
-135.45250000000001
 20
117.5643
 30
0.0
 10
-135.45250000000001
 20
117.5643
 30
0.0
  0
SPLINE
  5
85
100
AcDbEntity
  8
Ebene 1
370
     5
100
AcDbSpline
210
0.0
220
0.0
230
1.0
 70
     0
 71
     3
 72
     8
 73
     4
 74
     0
 42
0.0000000001
 43
0.0000000001
 40
0.0
 40
0.0
 40
0.0
 40
0.0
 40
1.0
 40
1.0
 40
1.0
 40
1.0
 10
397.91140000000001
 20
-569.50650000000007
 30
0.0
 10
397.91140000000001
 20
-569.50650000000007
 30
0.0
 10
297.91140000000001
 20
-569.50650000000007
 30
0.0
 10
297.91140000000001
 20
-569.50650000000007
 30
0.0
  0
SPLINE
  5
86
100
AcDbEntity
  8
Ebene 1
370
     5
100
AcDbSpline
210
0.0
220
0.0
230
1.0
 70
     0
 71
     3
 72
     8
 73
     4
 74
     0
 42
0.0000000001
 43
0.0000000001
 40
0.0
 40
0.0
 40
0.0
 40
0.0
 40
1.0
 40
1.0
 40
1.0
 40
1.0
 10
297.91140000000001
 20
-571.50599999999997
 30
0.0
 10
297.91140000000001
 20
-571.50599999999997
 30
0.0
 10
297.83969999999999
 20
-566.50599999999997
 30
0.0
 10
297.83969999999999
 20
-566.50599999999997
 30
0.0
  0
SPLINE
  5
87
100
AcDbEntity
  8
Ebene 1
370
     5
100
AcDbSpline
210
0.0
220
0.0
230
1.0
 70
     0
 71
     3
 72
     8
 73
     4
 74
     0
 42
0.0000000001
 43
0.0000000001
 40
0.0
 40
0.0
 40
0.0
 40
0.0
 40
1.0
 40
1.0
 40
1.0
 40
1.0
 10
307.91140000000001
 20
-571.50610000000006
 30
0.0
 10
307.91140000000001
 20
-571.50610000000006
 30
0.0
 10
307.83969999999999
 20
-566.50610000000006
 30
0.0
 10
307.83969999999999
 20
-566.50610000000006
 30
0.0
  0
SPLINE
  5
88
100
AcDbEntity
  8
Ebene 1
370
     5
100
AcDbSpline
210
0.0
220
0.0
230
1.0
 70
     0
 71
     3
 72
     8
 73
     4
 74
     0
 42
0.0000000001
 43
0.0000000001
 40
0.0
 40
0.0
 40
0.0
 40
0.0
 40
1.0
 40
1.0
 40
1.0
 40
1.0
 10
317.91140000000001
 20
-571.50620000000004
 30
0.0
 10
317.91140000000001
 20
-571.50620000000004
 30
0.0
 10
317.83969999999999
 20
-566.50620000000004
 30
0.0
 10
317.83969999999999
 20
-566.50620000000004
 30
0.0
  0
SPLINE
  5
89
100
AcDbEntity
  8
Ebene 1
370
     5
100
AcDbSpline
210
0.0
220
0.0
230
1.0
 70
     0
 71
     3
 72
     8
 73
     4
 74
     0
 42
0.0000000001
 43
0.0000000001
 40
0.0
 40
0.0
 40
0.0
 40
0.0
 40
1.0
 40
1.0
 40
1.0
 40
1.0
 10
327.91140000000001
 20
-571.50630000000001
 30
0.0
 10
327.91140000000001
 20
-571.50630000000001
 30
0.0
 10
327.83969999999999
 20
-566.50630000000001
 30
0.0
 10
327.83969999999999
 20
-566.50630000000001
 30
0.0
  0
SPLINE
  5
8A
100
AcDbEntity
  8
Ebene 1
370
     5
100
AcDbSpline
210
0.0
220
0.0
230
1.0
 70
     0
 71
     3
 72
     8
 73
     4
 74
     0
 42
0.0000000001
 43
0.0000000001
 40
0.0
 40
0.0
 40
0.0
 40
0.0
 40
1.0
 40
1.0
 40
1.0
 40
1.0
 10
337.91140000000001
 20
-571.50639999999999
 30
0.0
 10
337.91140000000001
 20
-571.50639999999999
 30
0.0
 10
337.83969999999999
 20
-566.50639999999999
 30
0.0
 10
337.83969999999999
 20
-566.50639999999999
 30
0.0
  0
SPLINE
  5
8B
100
AcDbEntity
  8
Ebene 1
370
     5
100
AcDbSpline
210
0.0
220
0.0
230
1.0
 70
     0
 71
     3
 72
     8
 73
     4
 74
     0
 42
0.0000000001
 43
0.0000000001
 40
0.0
 40
0.0
 40
0.0
 40
0.0
 40
1.0
 40
1.0
 40
1.0
 40
1.0
 10
347.91140000000001
 20
-571.50650000000007
 30
0.0
 10
347.91140000000001
 20
-571.50650000000007
 30
0.0
 10
347.83969999999999
 20
-566.50650000000007
 30
0.0
 10
347.83969999999999
 20
-566.50650000000007
 30
0.0
  0
SPLINE
  5
8C
100
AcDbEntity
  8
Ebene 1
370
     5
100
AcDbSpline
210
0.0
220
0.0
230
1.0
 70
     0
 71
     3
 72
     8
 73
     4
 74
     0
 42
0.0000000001
 43
0.0000000001
 40
0.0
 40
0.0
 40
0.0
 40
0.0
 40
1.0
 40
1.0
 40
1.0
 40
1.0
 10
357.91140000000001
 20
-571.50660000000005
 30
0.0
 10
357.91140000000001
 20
-571.50660000000005
 30
0.0
 10
357.83969999999999
 20
-566.50660000000005
 30
0.0
 10
357.83969999999999
 20
-566.50660000000005
 30
0.0
  0
SPLINE
  5
8D
100
AcDbEntity
  8
Ebene 1
370
     5
100
AcDbSpline
210
0.0
220
0.0
230
1.0
 70
     0
 71
     3
 72
     8
 73
     4
 74
     0
 42
0.0000000001
 43
0.0000000001
 40
0.0
 40
0.0
 40
0.0
 40
0.0
 40
1.0
 40
1.0
 40
1.0
 40
1.0
 10
367.91140000000001
 20
-571.50670000000002
 30
0.0
 10
367.91140000000001
 20
-571.50670000000002
 30
0.0
 10
367.83969999999999
 20
-566.50670000000002
 30
0.0
 10
367.83969999999999
 20
-566.50670000000002
 30
0.0
  0
SPLINE
  5
8E
100
AcDbEntity
  8
Ebene 1
370
     5
100
AcDbSpline
210
0.0
220
0.0
230
1.0
 70
     0
 71
     3
 72
     8
 73
     4
 74
     0
 42
0.0000000001
 43
0.0000000001
 40
0.0
 40
0.0
 40
0.0
 40
0.0
 40
1.0
 40
1.0
 40
1.0
 40
1.0
 10
377.91140000000001
 20
-571.5068
 30
0.0
 10
377.91140000000001
 20
-571.5068
 30
0.0
 10
377.83969999999999
 20
-566.5068
 30
0.0
 10
377.83969999999999
 20
-566.5068
 30
0.0
  0
SPLINE
  5
8F
100
AcDbEntity
  8
Ebene 1
370
     5
100
AcDbSpline
210
0.0
220
0.0
230
1.0
 70
     0
 71
     3
 72
     8
 73
     4
 74
     0
 42
0.0000000001
 43
0.0000000001
 40
0.0
 40
0.0
 40
0.0
 40
0.0
 40
1.0
 40
1.0
 40
1.0
 40
1.0
 10
387.91140000000001
 20
-571.50689999999997
 30
0.0
 10
387.91140000000001
 20
-571.50689999999997
 30
0.0
 10
387.83969999999999
 20
-566.50689999999997
 30
0.0
 10
387.83969999999999
 20
-566.50689999999997
 30
0.0
  0
SPLINE
  5
90
100
AcDbEntity
  8
Ebene 1
370
     5
100
AcDbSpline
210
0.0
220
0.0
230
1.0
 70
     0
 71
     3
 72
     8
 73
     4
 74
     0
 42
0.0000000001
 43
0.0000000001
 40
0.0
 40
0.0
 40
0.0
 40
0.0
 40
1.0
 40
1.0
 40
1.0
 40
1.0
 10
397.91140000000001
 20
-571.50700000000006
 30
0.0
 10
397.91140000000001
 20
-571.50700000000006
 30
0.0
 10
397.83969999999999
 20
-566.50700000000006
 30
0.0
 10
397.83969999999999
 20
-566.50700000000006
 30
0.0
  0
SPLINE
  5
91
100
AcDbEntity
  8
Ebene 1
370
     5
100
AcDbSpline
210
0.0
220
0.0
230
1.0
 70
     0
 71
     3
 72
     8
 73
     4
 74
     0
 42
0.0000000001
 43
0.0000000001
 40
0.0
 40
0.0
 40
0.0
 40
0.0
 40
1.0
 40
1.0
 40
1.0
 40
1.0
 10
397.87550000000005
 20
-469.00700000000001
 30
0.0
 10
397.87550000000005
 20
-469.00700000000001
 30
0.0
 10
397.87550000000005
 20
-569.00700000000006
 30
0.0
 10
397.87550000000005
 20
-569.00700000000006
 30
0.0
  0
SPLINE
  5
92
100
AcDbEntity
  8
Ebene 1
370
     5
100
AcDbSpline
210
0.0
220
0.0
230
1.0
 70
     0
 71
     3
 72
     8
 73
     4
 74
     0
 42
0.0000000001
 43
0.0000000001
 40
0.0
 40
0.0
 40
0.0
 40
0.0
 40
1.0
 40
1.0
 40
1.0
 40
1.0
 10
399.875
 20
-569.00700000000006
 30
0.0
 10
399.875
 20
-569.00700000000006
 30
0.0
 10
394.875
 20
-569.07870000000003
 30
0.0
 10
394.875
 20
-569.07870000000003
 30
0.0
  0
SPLINE
  5
93
100
AcDbEntity
  8
Ebene 1
370
     5
100
AcDbSpline
210
0.0
220
0.0
230
1.0
 70
     0
 71
     3
 72
     8
 73
     4
 74
     0
 42
0.0000000001
 43
0.0000000001
 40
0.0
 40
0.0
 40
0.0
 40
0.0
 40
1.0
 40
1.0
 40
1.0
 40
1.0
 10
399.87510000000003
 20
-559.00700000000006
 30
0.0
 10
399.87510000000003
 20
-559.00700000000006
 30
0.0
 10
394.87510000000003
 20
-559.07870000000003
 30
0.0
 10
394.87510000000003
 20
-559.07870000000003
 30
0.0
  0
SPLINE
  5
94
100
AcDbEntity
  8
Ebene 1
370
     5
100
AcDbSpline
210
0.0
220
0.0
230
1.0
 70
     0
 71
     3
 72
     8
 73
     4
 74
     0
 42
0.0000000001
 43
0.0000000001
 40
0.0
 40
0.0
 40
0.0
 40
0.0
 40
1.0
 40
1.0
 40
1.0
 40
1.0
 10
399.87520000000001
 20
-549.00700000000006
 30
0.0
 10
399.87520000000001
 20
-549.00700000000006
 30
0.0
 10
394.87520000000001
 20
-549.07870000000003
 30
0.0
 10
394.87520000000001
 20
-549.07870000000003
 30
0.0
  0
SPLINE
  5
95
100
AcDbEntity
  8
Ebene 1
370
     5
100
AcDbSpline
210
0.0
220
0.0
230
1.0
 70
     0
 71
     3
 72
     8
 73
     4
 74
     0
 42
0.0000000001
 43
0.0000000001
 40
0.0
 40
0.0
 40
0.0
 40
0.0
 40
1.0
 40
1.0
 40
1.0
 40
1.0
 10
399.87530000000004
 20
-539.00700000000006
 30
0.0
 10
399.87530000000004
 20
-539.00700000000006
 30
0.0
 10
394.87530000000004
 20
-539.07870000000003
 30
0.0
 10
394.87530000000004
 20
-539.07870000000003
 30
0.0
  0
SPLINE
  5
96
100
AcDbEntity
  8
Ebene 1
370
     5
100
AcDbSpline
210
0.0
220
0.0
230
1.0
 70
     0
 71
     3
 72
     8
 73
     4
 74
     0
 42
0.0000000001
 43
0.0000000001
 40
0.0
 40
0.0
 40
0.0
 40
0.0
 40
1.0
 40
1.0
 40
1.0
 40
1.0
 10
399.87540000000001
 20
-529.00700000000006
 30
0.0
 10
399.87540000000001
 20
-529.00700000000006
 30
0.0
 10
394.87540000000001
 20
-529.07870000000003
 30
0.0
 10
394.87540000000001
 20
-529.07870000000003
 30
0.0
  0
SPLINE
  5
97
100
AcDbEntity
  8
Ebene 1
370
     5
100
AcDbSpline
210
0.0
220
0.0
230
1.0
 70
     0
 71
     3
 72
     8
 73
     4
 74
     0
 42
0.0000000001
 43
0.0000000001
 40
0.0
 40
0.0
 40
0.0
 40
0.0
 40
1.0
 40
1.0
 40
1.0
 40
1.0
 10
399.87550000000005
 20
-519.00700000000006
 30
0.0
 10
399.87550000000005
 20
-519.00700000000006
 30
0.0
 10
394.87550000000005
 20
-519.07870000000003
 30
0.0
 10
394.87550000000005
 20
-519.07870000000003
 30
0.0
  0
SPLINE
  5
98
100
AcDbEntity
  8
Ebene 1
370
     5
100
AcDbSpline
210
0.0
220
0.0
230
1.0
 70
     0
 71
     3
 72
     8
 73
     4
 74
     0
 42
0.0000000001
 43
0.0000000001
 40
0.0
 40
0.0
 40
0.0
 40
0.0
 40
1.0
 40
1.0
 40
1.0
 40
1.0
 10
399.87560000000002
 20
-509.00700000000001
 30
0.0
 10
399.87560000000002
 20
-509.00700000000001
 30
0.0
 10
394.87560000000002
 20
-509.07870000000003
 30
0.0
 10
394.87560000000002
 20
-509.07870000000003
 30
0.0
  0
SPLINE
  5
99
100
AcDbEntity
  8
Ebene 1
370
     5
100
AcDbSpline
210
0.0
220
0.0
230
1.0
 70
     0
 71
     3
 72
     8
 73
     4
 74
     0
 42
0.0000000001
 43
0.0000000001
 40
0.0
 40
0.0
 40
0.0
 40
0.0
 40
1.0
 40
1.0
 40
1.0
 40
1.0
 10
399.87569999999999
 20
-499.00700000000001
 30
0.0
 10
399.87569999999999
 20
-499.00700000000001
 30
0.0
 10
394.87569999999999
 20
-499.07870000000003
 30
0.0
 10
394.87569999999999
 20
-499.07870000000003
 30
0.0
  0
SPLINE
  5
9A
100
AcDbEntity
  8
Ebene 1
370
     5
100
AcDbSpline
210
0.0
220
0.0
230
1.0
 70
     0
 71
     3
 72
     8
 73
     4
 74
     0
 42
0.0000000001
 43
0.0000000001
 40
0.0
 40
0.0
 40
0.0
 40
0.0
 40
1.0
 40
1.0
 40
1.0
 40
1.0
 10
399.87580000000003
 20
-489.00700000000001
 30
0.0
 10
399.87580000000003
 20
-489.00700000000001
 30
0.0
 10
394.87580000000003
 20
-489.07870000000003
 30
0.0
 10
394.87580000000003
 20
-489.07870000000003
 30
0.0
  0
SPLINE
  5
9B
100
AcDbEntity
  8
Ebene 1
370
     5
100
AcDbSpline
210
0.0
220
0.0
230
1.0
 70
     0
 71
     3
 72
     8
 73
     4
 74
     0
 42
0.0000000001
 43
0.0000000001
 40
0.0
 40
0.0
 40
0.0
 40
0.0
 40
1.0
 40
1.0
 40
1.0
 40
1.0
 10
399.8759
 20
-479.00700000000001
 30
0.0
 10
399.8759
 20
-479.00700000000001
 30
0.0
 10
394.8759
 20
-479.07870000000003
 30
0.0
 10
394.8759
 20
-479.07870000000003
 30
0.0
  0
SPLINE
  5
9C
100
AcDbEntity
  8
Ebene 1
370
     5
100
AcDbSpline
210
0.0
220
0.0
230
1.0
 70
     0
 71
     3
 72
     8
 73
     4
 74
     0
 42
0.0000000001
 43
0.0000000001
 40
0.0
 40
0.0
 40
0.0
 40
0.0
 40
1.0
 40
1.0
 40
1.0
 40
1.0
 10
399.87600000000003
 20
-469.00700000000001
 30
0.0
 10
399.87600000000003
 20
-469.00700000000001
 30
0.0
 10
394.87600000000003
 20
-469.07870000000003
 30
0.0
 10
394.87600000000003
 20
-469.07870000000003
 30
0.0
  0
SPLINE
  5
9D
100
AcDbEntity
  8
Ebene 1
370
     5
100
AcDbSpline
210
0.0
220
0.0
230
1.0
 70
     1
 71
     3
 72
    52
 73
    48
 74
     0
 42
0.0000000001
 43
0.0000000001
 40
0.0
 40
0.0
 40
0.0
 40
0.0
 40
0.0833333333333333
 40
0.0833333333333333
 40
0.0833333333333333
 40
0.0833333333333333
 40
0.1666666666666667
 40
0.1666666666666667
 40
0.1666666666666667
 40
0.1666666666666667
 40
0.25
 40
0.25
 40
0.25
 40
0.25
 40
0.3333333333333333
 40
0.3333333333333333
 40
0.3333333333333333
 40
0.3333333333333333
 40
0.4166666666666666
 40
0.4166666666666666
 40
0.4166666666666666
 40
0.4166666666666666
 40
0.4999999999999999
 40
0.4999999999999999
 40
0.4999999999999999
 40
0.4999999999999999
 40
0.5833333333333333
 40
0.5833333333333333
 40
0.5833333333333333
 40
0.5833333333333333
 40
0.6666666666666666
 40
0.6666666666666666
 40
0.6666666666666666
 40
0.6666666666666666
 40
0.75
 40
0.75
 40
0.75
 40
0.75
 40
0.8333333333333334
 40
0.8333333333333334
 40
0.8333333333333334
 40
0.8333333333333334
 40
0.9166666666666667
 40
0.9166666666666667
 40
0.9166666666666667
 40
0.9166666666666667
 40
1.0
 40
1.0
 40
1.0
 40
1.0
 10
218.6404
 20
-311.93680000000001
 30
0.0
 10
256.17570000000001
 20
-355.4144
 30
0.0
 10
270.83429999999998
 20
-454.30160000000001
 30
0.0
 10
255.7637
 20
-479.0437
 30
0.0
 10
255.7637
 20
-479.0437
 30
0.0
 10
255.7637
 20
-479.0437
 30
0.0
 10
270.80950000000001
 20
-479.0437
 30
0.0
 10
270.80950000000001
 20
-479.0437
 30
0.0
 10
270.80950000000001
 20
-479.0437
 30
0.0
 10
270.80950000000001
 20
-479.0437
 30
0.0
 10
270.80950000000001
 20
-482.04340000000002
 30
0.0
 10
270.80950000000001
 20
-482.04340000000002
 30
0.0
 10
270.80950000000001
 20
-482.04340000000002
 30
0.0
 10
270.80950000000001
 20
-482.04340000000002
 30
0.0
 10
310.80950000000001
 20
-482.04340000000002
 30
0.0
 10
310.80950000000001
 20
-482.04340000000002
 30
0.0
 10
310.80950000000001
 20
-482.04340000000002
 30
0.0
 10
310.80950000000001
 20
-482.04340000000002
 30
0.0
 10
310.80950000000001
 20
-479.0437
 30
0.0
 10
310.80950000000001
 20
-479.0437
 30
0.0
 10
310.80950000000001
 20
-479.0437
 30
0.0
 10
310.80950000000001
 20
-479.0437
 30
0.0
 10
325.76370000000003
 20
-479.0437
 30
0.0
 10
325.76370000000003
 20
-479.0437
 30
0.0
 10
325.76370000000003
 20
-479.0437
 30
0.0
 10
313.41640000000001
 20
-424.16130000000004
 30
0.0
 10
300.98759999999999
 20
-366.81909999999999
 30
0.0
 10
288.6404
 20
-311.93680000000001
 30
0.0
 10
288.6404
 20
-311.93680000000001
 30
0.0
 10
288.6404
 20
-311.93680000000001
 30
0.0
 10
273.67860000000002
 20
-311.93639999999999
 30
0.0
 10
273.67860000000002
 20
-311.93639999999999
 30
0.0
 10
273.67860000000002
 20
-311.93639999999999
 30
0.0
 10
273.67860000000002
 20
-311.93639999999999
 30
0.0
 10
273.67860000000002
 20
-308.93670000000003
 30
0.0
 10
273.67860000000002
 20
-308.93670000000003
 30
0.0
 10
273.67860000000002
 20
-308.93670000000003
 30
0.0
 10
273.67860000000002
 20
-308.93670000000003
 30
0.0
 10
233.67860000000002
 20
-308.93670000000003
 30
0.0
 10
233.67860000000002
 20
-308.93670000000003
 30
0.0
 10
233.67860000000002
 20
-308.93670000000003
 30
0.0
 10
233.67860000000002
 20
-308.93670000000003
 30
0.0
 10
233.67860000000002
 20
-311.93639999999999
 30
0.0
 10
233.67860000000002
 20
-311.93639999999999
 30
0.0
 10
233.67860000000002
 20
-311.93639999999999
 30
0.0
 10
233.67860000000002
 20
-311.93639999999999
 30
0.0
 10
218.6404
 20
-311.93680000000001
 30
0.0
 10
218.6404
 20
-311.93680000000001
 30
0.0
  0
SPLINE
  5
9E
100
AcDbEntity
  8
Ebene 1
370
     5
100
AcDbSpline
210
0.0
220
0.0
230
1.0
 70
     0
 71
     3
 72
    24
 73
    20
 74
     0
 42
0.0000000001
 43
0.0000000001
 40
0.0
 40
0.0
 40
0.0
 40
0.0
 40
0.2
 40
0.2
 40
0.2
 40
0.2
 40
0.4
 40
0.4
 40
0.4
 40
0.4
 40
0.6000000000000001
 40
0.6000000000000001
 40
0.6000000000000001
 40
0.6000000000000001
 40
0.8
 40
0.8
 40
0.8
 40
0.8
 40
1.0
 40
1.0
 40
1.0
 40
1.0
 10
0.0
 20
-68.499800000000008
 30
0.0
 10
0.0
 20
-68.499800000000008
 30
0.0
 10
305.25999999999999
 20
-109.80540000000001
 30
0.0
 10
305.25999999999999
 20
-109.80540000000001
 30
0.0
 10
305.25999999999999
 20
-109.80540000000001
 30
0.0
 10
346.31010000000003
 20
-114.98010000000001
 30
0.0
 10
364.3766
 20
-154.8364
 30
0.0
 10
365.94140000000004
 20
-197.27950000000001
 30
0.0
 10
365.94140000000004
 20
-197.27950000000001
 30
0.0
 10
365.94140000000004
 20
-197.27950000000001
 30
0.0
 10
365.94130000000001
 20
-247.27950000000001
 30
0.0
 10
365.94130000000001
 20
-247.27950000000001
 30
0.0
 10
365.94130000000001
 20
-247.27950000000001
 30
0.0
 10
365.94130000000001
 20
-247.27950000000001
 30
0.0
 10
15.414900000000001
 20
-287.71960000000001
 30
0.0
 10
15.414900000000001
 20
-287.71960000000001
 30
0.0
 10
15.414900000000001
 20
-287.71960000000001
 30
0.0
 10
15.414900000000001
 20
-287.71960000000001
 30
0.0
 10
0.9007000000000001
 20
-197.57040000000001
 30
0.0
 10
0.9007000000000001
 20
-197.57040000000001
 30
0.0
  0
SPLINE
  5
9F
100
AcDbEntity
  8
Ebene 1
370
     5
100
AcDbSpline
210
0.0
220
0.0
230
1.0
 70
     0
 71
     3
 72
     8
 73
     4
 74
     0
 42
0.0000000001
 43
0.0000000001
 40
0.0
 40
0.0
 40
0.0
 40
0.0
 40
1.0
 40
1.0
 40
1.0
 40
1.0
 10
365.94130000000001
 20
-197.27950000000001
 30
0.0
 10
365.94130000000001
 20
-197.27950000000001
 30
0.0
 10
1.4187000000000001
 20
-197.57040000000001
 30
0.0
 10
1.4187000000000001
 20
-197.57040000000001
 30
0.0
  0
SPLINE
  5
A0
100
AcDbEntity
  8
Ebene 1
370
     5
100
AcDbSpline
210
0.0
220
0.0
230
1.0
 70
     1
 71
     3
 72
    20
 73
    16
 74
     0
 42
0.0000000001
 43
0.0000000001
 40
0.0
 40
0.0
 40
0.0
 40
0.0
 40
0.25
 40
0.25
 40
0.25
 40
0.25
 40
0.5
 40
0.5
 40
0.5
 40
0.5
 40
0.75
 40
0.75
 40
0.75
 40
0.75
 40
1.0
 40
1.0
 40
1.0
 40
1.0
 10
1.5002
 20
-113.92500000000001
 30
0.0
 10
1.5002
 20
-113.92500000000001
 30
0.0
 10
1.5002
 20
-163.92500000000001
 30
0.0
 10
1.5002
 20
-163.92500000000001
 30
0.0
 10
1.5002
 20
-163.92500000000001
 30
0.0
 10
1.5002
 20
-163.92500000000001
 30
0.0
 10
-1.5002
 20
-163.92500000000001
 30
0.0
 10
-1.5002
 20
-163.92500000000001
 30
0.0
 10
-1.5002
 20
-163.92500000000001
 30
0.0
 10
-1.5002
 20
-163.92500000000001
 30
0.0
 10
-1.5002
 20
-113.92500000000001
 30
0.0
 10
-1.5002
 20
-113.92500000000001
 30
0.0
 10
-1.5002
 20
-113.92500000000001
 30
0.0
 10
-1.5002
 20
-113.92500000000001
 30
0.0
 10
1.5002
 20
-113.92500000000001
 30
0.0
 10
1.5002
 20
-113.92500000000001
 30
0.0
  0
SPLINE
  5
A1
100
AcDbEntity
  8
Ebene 1
370
     5
100
AcDbSpline
210
0.0
220
0.0
230
1.0
 70
     1
 71
     3
 72
    20
 73
    16
 74
     0
 42
0.0000000001
 43
0.0000000001
 40
0.0
 40
0.0
 40
0.0
 40
0.0
 40
0.25
 40
0.25
 40
0.25
 40
0.25
 40
0.5
 40
0.5
 40
0.5
 40
0.5
 40
0.75
 40
0.75
 40
0.75
 40
0.75
 40
1.0
 40
1.0
 40
1.0
 40
1.0
 10
278.71480000000003
 20
-173.12520000000001
 30
0.0
 10
278.71480000000003
 20
-173.12520000000001
 30
0.0
 10
291.07550000000003
 20
-135.0829
 30
0.0
 10
291.07550000000003
 20
-135.0829
 30
0.0
 10
291.07550000000003
 20
-135.0829
 30
0.0
 10
291.07550000000003
 20
-135.0829
 30
0.0
 10
288.22230000000002
 20
-134.1559
 30
0.0
 10
288.22230000000002
 20
-134.1559
 30
0.0
 10
288.22230000000002
 20
-134.1559
 30
0.0
 10
288.22230000000002
 20
-134.1559
 30
0.0
 10
275.86160000000001
 20
-172.19810000000001
 30
0.0
 10
275.86160000000001
 20
-172.19810000000001
 30
0.0
 10
275.86160000000001
 20
-172.19810000000001
 30
0.0
 10
275.86160000000001
 20
-172.19810000000001
 30
0.0
 10
278.71480000000003
 20
-173.12520000000001
 30
0.0
 10
278.71480000000003
 20
-173.12520000000001
 30
0.0
  0
SPLINE
  5
A2
100
AcDbEntity
  8
Ebene 1
370
     5
100
AcDbSpline
210
0.0
220
0.0
230
1.0
 70
     1
 71
     3
 72
    20
 73
    16
 74
     0
 42
0.0000000001
 43
0.0000000001
 40
0.0
 40
0.0
 40
0.0
 40
0.0
 40
0.25
 40
0.25
 40
0.25
 40
0.25
 40
0.5
 40
0.5
 40
0.5
 40
0.5
 40
0.75
 40
0.75
 40
0.75
 40
0.75
 40
1.0
 40
1.0
 40
1.0
 40
1.0
 10
-1.5002
 20
-113.92500000000001
 30
0.0
 10
-1.5002
 20
-113.92500000000001
 30
0.0
 10
-1.5002
 20
-163.92500000000001
 30
0.0
 10
-1.5002
 20
-163.92500000000001
 30
0.0
 10
-1.5002
 20
-163.92500000000001
 30
0.0
 10
-1.5002
 20
-163.92500000000001
 30
0.0
 10
1.5002
 20
-163.92500000000001
 30
0.0
 10
1.5002
 20
-163.92500000000001
 30
0.0
 10
1.5002
 20
-163.92500000000001
 30
0.0
 10
1.5002
 20
-163.92500000000001
 30
0.0
 10
1.5002
 20
-113.92500000000001
 30
0.0
 10
1.5002
 20
-113.92500000000001
 30
0.0
 10
1.5002
 20
-113.92500000000001
 30
0.0
 10
1.5002
 20
-113.92500000000001
 30
0.0
 10
-1.5002
 20
-113.92500000000001
 30
0.0
 10
-1.5002
 20
-113.92500000000001
 30
0.0
  0
SPLINE
  5
A3
100
AcDbEntity
  8
Ebene 1
370
     5
100
AcDbSpline
210
0.0
220
0.0
230
1.0
 70
     0
 71
     3
 72
    24
 73
    20
 74
     0
 42
0.0000000001
 43
0.0000000001
 40
0.0
 40
0.0
 40
0.0
 40
0.0
 40
0.2
 40
0.2
 40
0.2
 40
0.2
 40
0.4
 40
0.4
 40
0.4
 40
0.4
 40
0.6000000000000001
 40
0.6000000000000001
 40
0.6000000000000001
 40
0.6000000000000001
 40
0.8
 40
0.8
 40
0.8
 40
0.8
 40
1.0
 40
1.0
 40
1.0
 40
1.0
 10
0.0
 20
-68.499800000000008
 30
0.0
 10
0.0
 20
-68.499800000000008
 30
0.0
 10
-305.25999999999999
 20
-109.80540000000001
 30
0.0
 10
-305.25999999999999
 20
-109.80540000000001
 30
0.0
 10
-305.25999999999999
 20
-109.80540000000001
 30
0.0
 10
-346.31010000000003
 20
-114.98010000000001
 30
0.0
 10
-364.3766
 20
-154.8364
 30
0.0
 10
-365.94140000000004
 20
-197.27950000000001
 30
0.0
 10
-365.94140000000004
 20
-197.27950000000001
 30
0.0
 10
-365.94140000000004
 20
-197.27950000000001
 30
0.0
 10
-365.94130000000001
 20
-247.27950000000001
 30
0.0
 10
-365.94130000000001
 20
-247.27950000000001
 30
0.0
 10
-365.94130000000001
 20
-247.27950000000001
 30
0.0
 10
-365.94130000000001
 20
-247.27950000000001
 30
0.0
 10
-15.414900000000001
 20
-287.71960000000001
 30
0.0
 10
-15.414900000000001
 20
-287.71960000000001
 30
0.0
 10
-15.414900000000001
 20
-287.71960000000001
 30
0.0
 10
-15.414900000000001
 20
-287.71960000000001
 30
0.0
 10
-0.9007000000000001
 20
-197.57040000000001
 30
0.0
 10
-0.9007000000000001
 20
-197.57040000000001
 30
0.0
  0
SPLINE
  5
A4
100
AcDbEntity
  8
Ebene 1
370
     5
100
AcDbSpline
210
0.0
220
0.0
230
1.0
 70
     0
 71
     3
 72
     8
 73
     4
 74
     0
 42
0.0000000001
 43
0.0000000001
 40
0.0
 40
0.0
 40
0.0
 40
0.0
 40
1.0
 40
1.0
 40
1.0
 40
1.0
 10
-365.94130000000001
 20
-197.27950000000001
 30
0.0
 10
-365.94130000000001
 20
-197.27950000000001
 30
0.0
 10
-1.4187000000000001
 20
-197.57040000000001
 30
0.0
 10
-1.4187000000000001
 20
-197.57040000000001
 30
0.0
  0
SPLINE
  5
A5
100
AcDbEntity
  8
Ebene 1
370
     5
100
AcDbSpline
210
0.0
220
0.0
230
1.0
 70
     1
 71
     3
 72
    20
 73
    16
 74
     0
 42
0.0000000001
 43
0.0000000001
 40
0.0
 40
0.0
 40
0.0
 40
0.0
 40
0.25
 40
0.25
 40
0.25
 40
0.25
 40
0.5
 40
0.5
 40
0.5
 40
0.5
 40
0.75
 40
0.75
 40
0.75
 40
0.75
 40
1.0
 40
1.0
 40
1.0
 40
1.0
 10
-1.5002
 20
-113.92500000000001
 30
0.0
 10
-1.5002
 20
-113.92500000000001
 30
0.0
 10
-1.5002
 20
-163.92500000000001
 30
0.0
 10
-1.5002
 20
-163.92500000000001
 30
0.0
 10
-1.5002
 20
-163.92500000000001
 30
0.0
 10
-1.5002
 20
-163.92500000000001
 30
0.0
 10
1.5002
 20
-163.92500000000001
 30
0.0
 10
1.5002
 20
-163.92500000000001
 30
0.0
 10
1.5002
 20
-163.92500000000001
 30
0.0
 10
1.5002
 20
-163.92500000000001
 30
0.0
 10
1.5002
 20
-113.92500000000001
 30
0.0
 10
1.5002
 20
-113.92500000000001
 30
0.0
 10
1.5002
 20
-113.92500000000001
 30
0.0
 10
1.5002
 20
-113.92500000000001
 30
0.0
 10
-1.5002
 20
-113.92500000000001
 30
0.0
 10
-1.5002
 20
-113.92500000000001
 30
0.0
  0
SPLINE
  5
A6
100
AcDbEntity
  8
Ebene 1
370
     5
100
AcDbSpline
210
0.0
220
0.0
230
1.0
 70
     1
 71
     3
 72
    20
 73
    16
 74
     0
 42
0.0000000001
 43
0.0000000001
 40
0.0
 40
0.0
 40
0.0
 40
0.0
 40
0.25
 40
0.25
 40
0.25
 40
0.25
 40
0.5
 40
0.5
 40
0.5
 40
0.5
 40
0.75
 40
0.75
 40
0.75
 40
0.75
 40
1.0
 40
1.0
 40
1.0
 40
1.0
 10
197.4263
 20
-173.12390000000002
 30
0.0
 10
197.4263
 20
-173.12390000000002
 30
0.0
 10
209.78700000000001
 20
-135.08160000000001
 30
0.0
 10
209.78700000000001
 20
-135.08160000000001
 30
0.0
 10
209.78700000000001
 20
-135.08160000000001
 30
0.0
 10
209.78700000000001
 20
-135.08160000000001
 30
0.0
 10
206.93380000000002
 20
-134.15460000000002
 30
0.0
 10
206.93380000000002
 20
-134.15460000000002
 30
0.0
 10
206.93380000000002
 20
-134.15460000000002
 30
0.0
 10
206.93380000000002
 20
-134.15460000000002
 30
0.0
 10
194.57310000000001
 20
-172.1968
 30
0.0
 10
194.57310000000001
 20
-172.1968
 30
0.0
 10
194.57310000000001
 20
-172.1968
 30
0.0
 10
194.57310000000001
 20
-172.1968
 30
0.0
 10
197.4263
 20
-173.12390000000002
 30
0.0
 10
197.4263
 20
-173.12390000000002
 30
0.0
  0
SPLINE
  5
A7
100
AcDbEntity
  8
Ebene 1
370
     5
100
AcDbSpline
210
0.0
220
0.0
230
1.0
 70
     1
 71
     3
 72
    20
 73
    16
 74
     0
 42
0.0000000001
 43
0.0000000001
 40
0.0
 40
0.0
 40
0.0
 40
0.0
 40
0.25
 40
0.25
 40
0.25
 40
0.25
 40
0.5
 40
0.5
 40
0.5
 40
0.5
 40
0.75
 40
0.75
 40
0.75
 40
0.75
 40
1.0
 40
1.0
 40
1.0
 40
1.0
 10
-197.4263
 20
-173.12390000000002
 30
0.0
 10
-197.4263
 20
-173.12390000000002
 30
0.0
 10
-209.78700000000001
 20
-135.08160000000001
 30
0.0
 10
-209.78700000000001
 20
-135.08160000000001
 30
0.0
 10
-209.78700000000001
 20
-135.08160000000001
 30
0.0
 10
-209.78700000000001
 20
-135.08160000000001
 30
0.0
 10
-206.93380000000002
 20
-134.15460000000002
 30
0.0
 10
-206.93380000000002
 20
-134.15460000000002
 30
0.0
 10
-206.93380000000002
 20
-134.15460000000002
 30
0.0
 10
-206.93380000000002
 20
-134.15460000000002
 30
0.0
 10
-194.57310000000001
 20
-172.1968
 30
0.0
 10
-194.57310000000001
 20
-172.1968
 30
0.0
 10
-194.57310000000001
 20
-172.1968
 30
0.0
 10
-194.57310000000001
 20
-172.1968
 30
0.0
 10
-197.4263
 20
-173.12390000000002
 30
0.0
 10
-197.4263
 20
-173.12390000000002
 30
0.0
  0
SPLINE
  5
A8
100
AcDbEntity
  8
Ebene 1
370
     5
100
AcDbSpline
210
0.0
220
0.0
230
1.0
 70
     1
 71
     3
 72
    20
 73
    16
 74
     0
 42
0.0000000001
 43
0.0000000001
 40
0.0
 40
0.0
 40
0.0
 40
0.0
 40
0.25
 40
0.25
 40
0.25
 40
0.25
 40
0.5
 40
0.5
 40
0.5
 40
0.5
 40
0.75
 40
0.75
 40
0.75
 40
0.75
 40
1.0
 40
1.0
 40
1.0
 40
1.0
 10
-278.71480000000003
 20
-173.12520000000001
 30
0.0
 10
-278.71480000000003
 20
-173.12520000000001
 30
0.0
 10
-291.07550000000003
 20
-135.0829
 30
0.0
 10
-291.07550000000003
 20
-135.0829
 30
0.0
 10
-291.07550000000003
 20
-135.0829
 30
0.0
 10
-291.07550000000003
 20
-135.0829
 30
0.0
 10
-288.22230000000002
 20
-134.1559
 30
0.0
 10
-288.22230000000002
 20
-134.1559
 30
0.0
 10
-288.22230000000002
 20
-134.1559
 30
0.0
 10
-288.22230000000002
 20
-134.1559
 30
0.0
 10
-275.86160000000001
 20
-172.19810000000001
 30
0.0
 10
-275.86160000000001
 20
-172.19810000000001
 30
0.0
 10
-275.86160000000001
 20
-172.19810000000001
 30
0.0
 10
-275.86160000000001
 20
-172.19810000000001
 30
0.0
 10
-278.71480000000003
 20
-173.12520000000001
 30
0.0
 10
-278.71480000000003
 20
-173.12520000000001
 30
0.0
  0
SPLINE
  5
A9
100
AcDbEntity
  8
Ebene 1
370
     5
100
AcDbSpline
210
0.0
220
0.0
230
1.0
 70
     1
 71
     3
 72
    24
 73
    20
 74
     0
 42
0.0000000001
 43
0.0000000001
 40
0.0
 40
0.0
 40
0.0
 40
0.0
 40
0.2
 40
0.2
 40
0.2
 40
0.2
 40
0.4
 40
0.4
 40
0.4
 40
0.4
 40
0.6000000000000001
 40
0.6000000000000001
 40
0.6000000000000001
 40
0.6000000000000001
 40
0.8
 40
0.8
 40
0.8
 40
0.8
 40
1.0
 40
1.0
 40
1.0
 40
1.0
 10
-216.78620000000001
 20
-382.767
 30
0.0
 10
-208.95930000000001
 20
-367.50020000000001
 30
0.0
 10
-202.27670000000001
 20
-352.88740000000001
 30
0.0
 10
-198.7568
 20
-340.08170000000001
 30
0.0
 10
-198.7568
 20
-340.08170000000001
 30
0.0
 10
-197.38730000000001
 20
-330.39000000000004
 30
0.0
 10
-205.24180000000001
 20
-322.767
 30
0.0
 10
-215.4023
 20
-322.767
 30
0.0
 10
-215.4023
 20
-322.767
 30
0.0
 10
-215.4023
 20
-322.767
 30
0.0
 10
-348.7568
 20
-322.767
 30
0.0
 10
-348.7568
 20
-322.767
 30
0.0
 10
-348.7568
 20
-322.767
 30
0.0
 10
-348.64160000000004
 20
-328.12030000000004
 30
0.0
 10
-346.24510000000004
 20
-329.79570000000001
 30
0.0
 10
-344.08370000000002
 20
-329.90270000000004
 30
0.0
 10
-344.08370000000002
 20
-329.90270000000004
 30
0.0
 10
-214.06980000000001
 20
-332.45320000000004
 30
0.0
 10
-220.8622
 20
-344.78470000000004
 30
0.0
 10
-216.78620000000001
 20
-382.767
 30
0.0
  0
SPLINE
  5
AA
100
AcDbEntity
  8
Ebene 1
370
     5
100
AcDbSpline
210
0.0
220
0.0
230
1.0
 70
     0
 71
     3
 72
     8
 73
     4
 74
     0
 42
0.0000000001
 43
0.0000000001
 40
0.0
 40
0.0
 40
0.0
 40
0.0
 40
1.0
 40
1.0
 40
1.0
 40
1.0
 10
29.881300000000003
 20
-377.65120000000002
 30
0.0
 10
29.881300000000003
 20
-377.65120000000002
 30
0.0
 10
1.3815000000000002
 20
-362.67040000000003
 30
0.0
 10
1.3815000000000002
 20
-362.67040000000003
 30
0.0
  0
SPLINE
  5
AB
100
AcDbEntity
  8
Ebene 1
370
     5
100
AcDbSpline
210
0.0
220
0.0
230
1.0
 70
     0
 71
     3
 72
     8
 73
     4
 74
     0
 42
0.0000000001
 43
0.0000000001
 40
0.0
 40
0.0
 40
0.0
 40
0.0
 40
1.0
 40
1.0
 40
1.0
 40
1.0
 10
-30.0001
 20
-377.65120000000002
 30
0.0
 10
-30.0001
 20
-377.65120000000002
 30
0.0
 10
-1.5003
 20
-362.67040000000003
 30
0.0
 10
-1.5003
 20
-362.67040000000003
 30
0.0
  0
SPLINE
  5
AC
100
AcDbEntity
  8
Ebene 1
370
     5
100
AcDbSpline
210
0.0
220
0.0
230
1.0
 70
     1
 71
     3
 72
    20
 73
    16
 74
     0
 42
0.0000000001
 43
0.0000000001
 40
0.0
 40
0.0
 40
0.0
 40
0.0
 40
0.25
 40
0.25
 40
0.25
 40
0.25
 40
0.5
 40
0.5
 40
0.5
 40
0.5
 40
0.75
 40
0.75
 40
0.75
 40
0.75
 40
1.0
 40
1.0
 40
1.0
 40
1.0
 10
1.5003
 20
-377.6694
 30
0.0
 10
1.5003
 20
-377.6694
 30
0.0
 10
1.5003
 20
-427.78149999999999
 30
0.0
 10
1.5003
 20
-427.78149999999999
 30
0.0
 10
1.5003
 20
-427.78149999999999
 30
0.0
 10
1.5003
 20
-427.78149999999999
 30
0.0
 10
-1.5001
 20
-427.78149999999999
 30
0.0
 10
-1.5001
 20
-427.78149999999999
 30
0.0
 10
-1.5001
 20
-427.78149999999999
 30
0.0
 10
-1.5001
 20
-427.78149999999999
 30
0.0
 10
-1.5001
 20
-377.6694
 30
0.0
 10
-1.5001
 20
-377.6694
 30
0.0
 10
-1.5001
 20
-377.6694
 30
0.0
 10
-1.5001
 20
-377.6694
 30
0.0
 10
1.5003
 20
-377.6694
 30
0.0
 10
1.5003
 20
-377.6694
 30
0.0
  0
SPLINE
  5
AD
100
AcDbEntity
  8
Ebene 1
370
     5
100
AcDbSpline
210
0.0
220
0.0
230
1.0
 70
     0
 71
     3
 72
    32
 73
    28
 74
     0
 42
0.0000000001
 43
0.0000000001
 40
0.0
 40
0.0
 40
0.0
 40
0.0
 40
0.1428571428571429
 40
0.1428571428571429
 40
0.1428571428571429
 40
0.1428571428571429
 40
0.2857142857142857
 40
0.2857142857142857
 40
0.2857142857142857
 40
0.2857142857142857
 40
0.4285714285714286
 40
0.4285714285714286
 40
0.4285714285714286
 40
0.4285714285714286
 40
0.5714285714285714
 40
0.5714285714285714
 40
0.5714285714285714
 40
0.5714285714285714
 40
0.7142857142857142
 40
0.7142857142857142
 40
0.7142857142857142
 40
0.7142857142857142
 40
0.857142857142857
 40
0.857142857142857
 40
0.857142857142857
 40
0.857142857142857
 40
1.0
 40
1.0
 40
1.0
 40
1.0
 10
25.096800000000002
 20
-532.45370000000003
 30
0.0
 10
25.096800000000002
 20
-532.45370000000003
 30
0.0
 10
25.090700000000002
 20
-488.88980000000004
 30
0.0
 10
25.090700000000002
 20
-488.88980000000004
 30
0.0
 10
25.090700000000002
 20
-488.88980000000004
 30
0.0
 10
25.069200000000002
 20
-485.69480000000004
 30
0.0
 10
22.654500000000002
 20
-483.87850000000003
 30
0.0
 10
20.090700000000002
 20
-483.86600000000004
 30
0.0
 10
20.090700000000002
 20
-483.86600000000004
 30
0.0
 10
20.090700000000002
 20
-483.86600000000004
 30
0.0
 10
11.0
 20
-483.88470000000001
 30
0.0
 10
11.0
 20
-483.88470000000001
 30
0.0
 10
11.0
 20
-483.88470000000001
 30
0.0
 10
11.0
 20
-483.88470000000001
 30
0.0
 10
11.0
 20
-470.91860000000003
 30
0.0
 10
11.0
 20
-470.91860000000003
 30
0.0
 10
11.0
 20
-470.91860000000003
 30
0.0
 10
11.0
 20
-470.91860000000003
 30
0.0
 10
10.0
 20
-470.91860000000003
 30
0.0
 10
10.0
 20
-470.91860000000003
 30
0.0
 10
10.0
 20
-470.91860000000003
 30
0.0
 10
10.0
 20
-470.91860000000003
 30
0.0
 10
10.0
 20
-483.88680000000005
 30
0.0
 10
10.0
 20
-483.88680000000005
 30
0.0
 10
10.0
 20
-483.88680000000005
 30
0.0
 10
10.0
 20
-483.88680000000005
 30
0.0
 10
0.0001
 20
-483.91910000000001
 30
0.0
 10
0.0001
 20
-483.91910000000001
 30
0.0
  0
SPLINE
  5
AE
100
AcDbEntity
  8
Ebene 1
370
     5
100
AcDbSpline
210
0.0
220
0.0
230
1.0
 70
     0
 71
     3
 72
     8
 73
     4
 74
     0
 42
0.0000000001
 43
0.0000000001
 40
0.0
 40
0.0
 40
0.0
 40
0.0
 40
1.0
 40
1.0
 40
1.0
 40
1.0
 10
143.62649999999999
 20
-429.49520000000001
 30
0.0
 10
143.62649999999999
 20
-429.49520000000001
 30
0.0
 10
52.0501
 20
-402.65040000000005
 30
0.0
 10
52.0501
 20
-402.65040000000005
 30
0.0
  0
SPLINE
  5
AF
100
AcDbEntity
  8
Ebene 1
370
     5
100
AcDbSpline
210
0.0
220
0.0
230
1.0
 70
     0
 71
     3
 72
     8
 73
     4
 74
     0
 42
0.0000000001
 43
0.0000000001
 40
0.0
 40
0.0
 40
0.0
 40
0.0
 40
1.0
 40
1.0
 40
1.0
 40
1.0
 10
181.97390000000001
 20
-518.1232
 30
0.0
 10
181.97390000000001
 20
-518.1232
 30
0.0
 10
25.096800000000002
 20
-532.45370000000003
 30
0.0
 10
25.096800000000002
 20
-532.45370000000003
 30
0.0
  0
SPLINE
  5
B0
100
AcDbEntity
  8
Ebene 1
370
     5
100
AcDbSpline
210
0.0
220
0.0
230
1.0
 70
     0
 71
     3
 72
     8
 73
     4
 74
     0
 42
0.0000000001
 43
0.0000000001
 40
0.0
 40
0.0
 40
0.0
 40
0.0
 40
1.0
 40
1.0
 40
1.0
 40
1.0
 10
0.0
 20
-452.91880000000003
 30
0.0
 10
0.0
 20
-452.91880000000003
 30
0.0
 10
137.24940000000001
 20
-452.91880000000003
 30
0.0
 10
137.24940000000001
 20
-452.91880000000003
 30
0.0
  0
SPLINE
  5
B1
100
AcDbEntity
  8
Ebene 1
370
     5
100
AcDbSpline
210
0.0
220
0.0
230
1.0
 70
     0
 71
     3
 72
     8
 73
     4
 74
     0
 42
0.0000000001
 43
0.0000000001
 40
0.0
 40
0.0
 40
0.0
 40
0.0
 40
1.0
 40
1.0
 40
1.0
 40
1.0
 10
143.62649999999999
 20
-429.49520000000001
 30
0.0
 10
162.95420000000001
 20
-434.88240000000002
 30
0.0
 10
181.58340000000001
 20
-456.29810000000003
 30
0.0
 10
181.9785
 20
-480.9194
 30
0.0
  0
SPLINE
  5
B2
100
AcDbEntity
  8
Ebene 1
370
     5
100
AcDbSpline
210
0.0
220
0.0
230
1.0
 70
     0
 71
     3
 72
     8
 73
     4
 74
     0
 42
0.0000000001
 43
0.0000000001
 40
0.0
 40
0.0
 40
0.0
 40
0.0
 40
1.0
 40
1.0
 40
1.0
 40
1.0
 10
137.24940000000001
 20
-452.91880000000003
 30
0.0
 10
137.24940000000001
 20
-452.91880000000003
 30
0.0
 10
144.9272
 20
-429.88200000000001
 30
0.0
 10
144.9272
 20
-429.88200000000001
 30
0.0
  0
SPLINE
  5
B3
100
AcDbEntity
  8
Ebene 1
370
     5
100
AcDbSpline
210
0.0
220
0.0
230
1.0
 70
     0
 71
     3
 72
     8
 73
     4
 74
     0
 42
0.0000000001
 43
0.0000000001
 40
0.0
 40
0.0
 40
0.0
 40
0.0
 40
1.0
 40
1.0
 40
1.0
 40
1.0
 10
52.0501
 20
-402.65040000000005
 30
0.0
 10
39.4375
 20
-398.95310000000001
 30
0.0
 10
29.8124
 20
-388.8252
 30
0.0
 10
30.0001
 20
-377.65120000000002
 30
0.0
  0
SPLINE
  5
B4
100
AcDbEntity
  8
Ebene 1
370
     5
100
AcDbSpline
210
0.0
220
0.0
230
1.0
 70
     0
 71
     3
 72
     8
 73
     4
 74
     0
 42
0.0000000001
 43
0.0000000001
 40
0.0
 40
0.0
 40
0.0
 40
0.0
 40
1.0
 40
1.0
 40
1.0
 40
1.0
 10
181.9785
 20
-480.9194
 30
0.0
 10
181.9785
 20
-480.9194
 30
0.0
 10
181.97390000000001
 20
-518.1232
 30
0.0
 10
181.97390000000001
 20
-518.1232
 30
0.0
  0
SPLINE
  5
B5
100
AcDbEntity
  8
Ebene 1
370
     5
100
AcDbSpline
210
0.0
220
0.0
230
1.0
 70
     0
 71
     3
 72
    16
 73
    12
 74
     0
 42
0.0000000001
 43
0.0000000001
 40
0.0
 40
0.0
 40
0.0
 40
0.0
 40
0.3333333333333333
 40
0.3333333333333333
 40
0.3333333333333333
 40
0.3333333333333333
 40
0.6666666666666666
 40
0.6666666666666666
 40
0.6666666666666666
 40
0.6666666666666666
 40
1.0
 40
1.0
 40
1.0
 40
1.0
 10
-25.096800000000002
 20
-532.45370000000003
 30
0.0
 10
-25.096800000000002
 20
-532.45370000000003
 30
0.0
 10
-25.090700000000002
 20
-488.88980000000004
 30
0.0
 10
-25.090700000000002
 20
-488.88980000000004
 30
0.0
 10
-25.090700000000002
 20
-488.88980000000004
 30
0.0
 10
-25.069200000000002
 20
-485.69480000000004
 30
0.0
 10
-22.654500000000002
 20
-483.87850000000003
 30
0.0
 10
-20.090700000000002
 20
-483.86600000000004
 30
0.0
 10
-20.090700000000002
 20
-483.86600000000004
 30
0.0
 10
-20.090700000000002
 20
-483.86600000000004
 30
0.0
 10
-0.0001
 20
-483.91910000000001
 30
0.0
 10
-0.0001
 20
-483.91910000000001
 30
0.0
  0
SPLINE
  5
B6
100
AcDbEntity
  8
Ebene 1
370
     5
100
AcDbSpline
210
0.0
220
0.0
230
1.0
 70
     0
 71
     3
 72
     8
 73
     4
 74
     0
 42
0.0000000001
 43
0.0000000001
 40
0.0
 40
0.0
 40
0.0
 40
0.0
 40
1.0
 40
1.0
 40
1.0
 40
1.0
 10
-143.62649999999999
 20
-429.49520000000001
 30
0.0
 10
-143.62649999999999
 20
-429.49520000000001
 30
0.0
 10
-52.0501
 20
-402.65040000000005
 30
0.0
 10
-52.0501
 20
-402.65040000000005
 30
0.0
  0
SPLINE
  5
B7
100
AcDbEntity
  8
Ebene 1
370
     5
100
AcDbSpline
210
0.0
220
0.0
230
1.0
 70
     0
 71
     3
 72
     8
 73
     4
 74
     0
 42
0.0000000001
 43
0.0000000001
 40
0.0
 40
0.0
 40
0.0
 40
0.0
 40
1.0
 40
1.0
 40
1.0
 40
1.0
 10
-181.97390000000001
 20
-518.1232
 30
0.0
 10
-181.97390000000001
 20
-518.1232
 30
0.0
 10
-25.096800000000002
 20
-532.45370000000003
 30
0.0
 10
-25.096800000000002
 20
-532.45370000000003
 30
0.0
  0
SPLINE
  5
B8
100
AcDbEntity
  8
Ebene 1
370
     5
100
AcDbSpline
210
0.0
220
0.0
230
1.0
 70
     0
 71
     3
 72
     8
 73
     4
 74
     0
 42
0.0000000001
 43
0.0000000001
 40
0.0
 40
0.0
 40
0.0
 40
0.0
 40
1.0
 40
1.0
 40
1.0
 40
1.0
 10
0.0
 20
-452.91880000000003
 30
0.0
 10
0.0
 20
-452.91880000000003
 30
0.0
 10
-137.24940000000001
 20
-452.91880000000003
 30
0.0
 10
-137.24940000000001
 20
-452.91880000000003
 30
0.0
  0
SPLINE
  5
B9
100
AcDbEntity
  8
Ebene 1
370
     5
100
AcDbSpline
210
0.0
220
0.0
230
1.0
 70
     0
 71
     3
 72
     8
 73
     4
 74
     0
 42
0.0000000001
 43
0.0000000001
 40
0.0
 40
0.0
 40
0.0
 40
0.0
 40
1.0
 40
1.0
 40
1.0
 40
1.0
 10
-143.62649999999999
 20
-429.49520000000001
 30
0.0
 10
-162.95420000000001
 20
-434.88240000000002
 30
0.0
 10
-181.58340000000001
 20
-456.29810000000003
 30
0.0
 10
-181.9785
 20
-480.9194
 30
0.0
  0
SPLINE
  5
BA
100
AcDbEntity
  8
Ebene 1
370
     5
100
AcDbSpline
210
0.0
220
0.0
230
1.0
 70
     0
 71
     3
 72
     8
 73
     4
 74
     0
 42
0.0000000001
 43
0.0000000001
 40
0.0
 40
0.0
 40
0.0
 40
0.0
 40
1.0
 40
1.0
 40
1.0
 40
1.0
 10
-137.24940000000001
 20
-452.91880000000003
 30
0.0
 10
-137.24940000000001
 20
-452.91880000000003
 30
0.0
 10
-144.9272
 20
-429.88200000000001
 30
0.0
 10
-144.9272
 20
-429.88200000000001
 30
0.0
  0
SPLINE
  5
BB
100
AcDbEntity
  8
Ebene 1
370
     5
100
AcDbSpline
210
0.0
220
0.0
230
1.0
 70
     0
 71
     3
 72
     8
 73
     4
 74
     0
 42
0.0000000001
 43
0.0000000001
 40
0.0
 40
0.0
 40
0.0
 40
0.0
 40
1.0
 40
1.0
 40
1.0
 40
1.0
 10
-52.0501
 20
-402.65040000000005
 30
0.0
 10
-39.4375
 20
-398.95310000000001
 30
0.0
 10
-29.8124
 20
-388.8252
 30
0.0
 10
-30.0001
 20
-377.65120000000002
 30
0.0
  0
SPLINE
  5
BC
100
AcDbEntity
  8
Ebene 1
370
     5
100
AcDbSpline
210
0.0
220
0.0
230
1.0
 70
     0
 71
     3
 72
     8
 73
     4
 74
     0
 42
0.0000000001
 43
0.0000000001
 40
0.0
 40
0.0
 40
0.0
 40
0.0
 40
1.0
 40
1.0
 40
1.0
 40
1.0
 10
-181.9785
 20
-480.9194
 30
0.0
 10
-181.9785
 20
-480.9194
 30
0.0
 10
-181.97390000000001
 20
-518.1232
 30
0.0
 10
-181.97390000000001
 20
-518.1232
 30
0.0
  0
SPLINE
  5
BD
100
AcDbEntity
  8
Ebene 1
370
     5
100
AcDbSpline
210
0.0
220
0.0
230
1.0
 70
     0
 71
     3
 72
     8
 73
     4
 74
     0
 42
0.0000000001
 43
0.0000000001
 40
0.0
 40
0.0
 40
0.0
 40
0.0
 40
1.0
 40
1.0
 40
1.0
 40
1.0
 10
-1.5003
 20
-362.67040000000003
 30
0.0
 10
-1.5003
 20
-362.67040000000003
 30
0.0
 10
1.3815000000000002
 20
-362.67040000000003
 30
0.0
 10
1.3815000000000002
 20
-362.67040000000003
 30
0.0
  0
ELLIPSE
  5
BE
100
AcDbEntity
  8
Ebene 1
370
     5
100
AcDbEllipse
 10
77.2494
 20
-451.4189
 30
0.0
 11
0.0
 21
0.75
 31
0.0
210
0.0
220
0.0
230
1.0
 40
1.0
 41
0.0
 42
6.2831799999999998
  0
SPLINE
  5
BF
100
AcDbEntity
  8
Ebene 1
370
     5
100
AcDbSpline
210
0.0
220
0.0
230
1.0
 70
     0
 71
     3
 72
     8
 73
     4
 74
     0
 42
0.0000000001
 43
0.0000000001
 40
0.0
 40
0.0
 40
0.0
 40
0.0
 40
1.0
 40
1.0
 40
1.0
 40
1.0
 10
77.249400000000009
 20
-450.16880000000003
 30
0.0
 10
77.249400000000009
 20
-450.16880000000003
 30
0.0
 10
77.249400000000009
 20
-452.66880000000003
 30
0.0
 10
77.249400000000009
 20
-452.66880000000003
 30
0.0
  0
SPLINE
  5
C0
100
AcDbEntity
  8
Ebene 1
370
     5
100
AcDbSpline
210
0.0
220
0.0
230
1.0
 70
     0
 71
     3
 72
     8
 73
     4
 74
     0
 42
0.0000000001
 43
0.0000000001
 40
0.0
 40
0.0
 40
0.0
 40
0.0
 40
1.0
 40
1.0
 40
1.0
 40
1.0
 10
75.999400000000009
 20
-451.41880000000003
 30
0.0
 10
75.999400000000009
 20
-451.41880000000003
 30
0.0
 10
78.499400000000009
 20
-451.41880000000003
 30
0.0
 10
78.499400000000009
 20
-451.41880000000003
 30
0.0
  0
ELLIPSE
  5
C1
100
AcDbEntity
  8
Ebene 1
370
     5
100
AcDbEllipse
 10
-77.2494
 20
-451.4189
 30
0.0
 11
0.0
 21
0.75
 31
0.0
210
0.0
220
0.0
230
1.0
 40
1.0
 41
0.0
 42
6.2831799999999998
  0
SPLINE
  5
C2
100
AcDbEntity
  8
Ebene 1
370
     5
100
AcDbSpline
210
0.0
220
0.0
230
1.0
 70
     0
 71
     3
 72
     8
 73
     4
 74
     0
 42
0.0000000001
 43
0.0000000001
 40
0.0
 40
0.0
 40
0.0
 40
0.0
 40
1.0
 40
1.0
 40
1.0
 40
1.0
 10
-77.249400000000009
 20
-450.16880000000003
 30
0.0
 10
-77.249400000000009
 20
-450.16880000000003
 30
0.0
 10
-77.249400000000009
 20
-452.66880000000003
 30
0.0
 10
-77.249400000000009
 20
-452.66880000000003
 30
0.0
  0
SPLINE
  5
C3
100
AcDbEntity
  8
Ebene 1
370
     5
100
AcDbSpline
210
0.0
220
0.0
230
1.0
 70
     0
 71
     3
 72
     8
 73
     4
 74
     0
 42
0.0000000001
 43
0.0000000001
 40
0.0
 40
0.0
 40
0.0
 40
0.0
 40
1.0
 40
1.0
 40
1.0
 40
1.0
 10
-78.499400000000009
 20
-451.41880000000003
 30
0.0
 10
-78.499400000000009
 20
-451.41880000000003
 30
0.0
 10
-75.999400000000009
 20
-451.41880000000003
 30
0.0
 10
-75.999400000000009
 20
-451.41880000000003
 30
0.0
  0
ENDSEC
  0
SECTION
  2
OBJECTS
  0
DICTIONARY
  5
19
100
AcDbDictionary
280
     0
281
     1
  3
ACAD_GROUP
350
1A
  3
ACAD_MLINESTYLE
350
1B
  3
ACAD_LAYOUT
350
1E
  3
ACAD_PLOTSETTINGS
350
22
  3
ACAD_PLOTSTYLENAME
350
1F
  3
ACAD_WIPEOUT_VARS
350
23
  0
DICTIONARY
  5
1A
102
{ACAD_REACTORS
330
19
102
}
100
AcDbDictionary
280
     0
281
     1
  0
DICTIONARY
  5
1B
102
{ACAD_REACTORS
330
19
102
}
100
AcDbDictionary
280
     0
281
     1
  3
Standard
350
1C
  0
MLINESTYLE
  5
1C
102
{ACAD_REACTORS
330
1B
102
}
100
AcDbMlineStyle
  2
Standard
 70
     0
  3

 62
     0
 51
90.0
 52
90.0
 71
     2
 49
0.5
 62
   256
  6
BYLAYER
 49
-0.5
 62
   256
  6
BYLAYER
  0
ACDBDICTIONARYWDFLT
  5
1F
102
{ACAD_REACTORS
330
19
102
}
100
AcDbDictionary
281
     1
  3
Normal
350
1D
100
AcDbDictionaryWithDefault
340
1D
  0
ACDBPLACEHOLDER
  5
1D
102
{ACAD_REACTORS
330
1F
102
}
  0
LAYOUT
  5
20
102
{ACAD_REACTORS
330
1E
102
}
100
AcDbPlotSettings
  1

  2

  4

  6

 40
0.0
 41
0.0
 42
0.0
 43
0.0
 44
0.0
 45
0.0
 46
0.0
 47
0.0
 48
0.0
 49
0.0
140
0.0
141
0.0
142
1.0
143
1.0
 70
  1024
 72
     0
 73
     0
 74
     0
  7

 75
     0
147
1.0
148
0.0
149
0.0
100
AcDbLayout
  1
Model
 70
     0
 71
     0
 10
0.0
 20
0.0
 11
0.0
 21
0.0
 12
0.0
 22
0.0
 32
0.0
 14
0.0
 24
0.0
 34
0.0
 15
0.0
 25
0.0
 35
0.0
146
0.0
 13
0.0
 23
0.0
 33
0.0
 16
0.0
 26
0.0
 36
0.0
 17
0.0
 27
0.0
 37
0.0
 76
     0
330
A
331
0
345
0
346
0
  0
LAYOUT
  5
21
102
{ACAD_REACTORS
330
1E
102
}
100
AcDbPlotSettings
  1

  2

  4

  6

 40
0.0
 41
0.0
 42
0.0
 43
0.0
 44
0.0
 45
0.0
 46
0.0
 47
0.0
 48
0.0
 49
0.0
140
0.0
141
0.0
142
1.0
143
1.0
 70
     0
 72
     0
 73
     0
 74
     0
  7

 75
     0
147
1.0
148
0.0
149
0.0
100
AcDbLayout
  1
Layout1
 70
     0
 71
     0
 10
0.0
 20
0.0
 11
0.0
 21
0.0
 12
0.0
 22
0.0
 32
0.0
 14
0.0
 24
0.0
 34
0.0
 15
0.0
 25
0.0
 35
0.0
146
0.0
 13
0.0
 23
0.0
 33
0.0
 16
0.0
 26
0.0
 36
0.0
 17
0.0
 27
0.0
 37
0.0
 76
     0
330
B
331
0
345
0
346
0
  0
DICTIONARY
  5
1E
102
{ACAD_REACTORS
330
19
102
}
100
AcDbDictionary
280
     0
281
     1
  3
Layout1
350
21
  3
Model
350
20
  0
DICTIONARY
  5
22
102
{ACAD_REACTORS
330
19
102
}
100
AcDbDictionary
280
     0
281
     1
  0
WIPEOUTVARIABLES
  5
23
100
AcDbWipeoutVariables
 70
     1
  0
ENDSEC
  0
EOF
