  0
SECTION
  2
TABLES
  0
TABLE
  2
LAYER
 70
    10
  0
LAYER
  6
CONTINUOUS
 70
    64
  2
LAYER1
 62
     1
  0
LAYER
  6
CONTINUOUS
 70
    64
  2
LAYER7
 62
     7
  0
LAYER
  6
CONTINUOUS
 70
    64
  2
LAYER5
 62
     5
  0
LAYER
  6
CONTINUOUS
 70
    64
  2
LAYER10
 62
    10
  0
LAYER
  6
CONTINUOUS
 70
    64
  2
LAYER2
 62
     2
  0
LAYER
  6
CONTINUOUS
 70
    64
  2
LAYER9
 62
     9
  0
LAYER
  6
CONTINUOUS
 70
    64
  2
LAYER3
 62
     3
  0
LAYER
  6
CONTINUOUS
 70
    64
  2
LAYER6
 62
     6
  0
LAYER
  6
CONTINUOUS
 70
    64
  2
LAYER4
 62
     4
  0
LAYER
  6
CONTINUOUS
 70
    64
  2
LAYER8
 62
     8
  0
ENDTAB
  0
ENDSEC
  0
SECTION
  2
ENTITIES
  0
LWPOLYLINE
  5
1
  8
LAYER1
 90
    44
 10
678.866
 20
691.3
 10
682.86
 20
690.82
 10
688.105
 20
690.265
 10
693.262
 20
689.802
 10
698.33
 20
689.429
 10
703.314
 20
689.144
 10
708.213
 20
688.943
 10
713.031
 20
688.824
 10
717.768
 20
688.784
 10
722.428
 20
688.819
 10
727.012
 20
688.927
 10
731.521
 20
689.106
 10
735.958
 20
689.351
 10
740.324
 20
689.661
 10
744.622
 20
690.031
 10
748.853
 20
690.461
 10
753.02
 20
690.946
 10
757.123
 20
691.483
 10
762.167
 20
692.225
 10
767.119
 20
693.039
 10
771.984
 20
693.919
 10
776.764
 20
694.86
 10
782.395
 20
696.062
 10
787.915
 20
697.333
 10
794.227
 20
698.892
 10
801.28
 20
700.754
 10
809.882
 20
703.167
 10
845.602
 20
713.819
 10
853.408
 20
715.987
 10
858.839
 20
717.395
 10
863.482
 20
718.515
 10
867.346
 20
719.382
 10
871.211
 20
720.18
 10
874.306
 20
720.766
 10
877.405
 20
721.302
 10
880.51
 20
721.786
 10
882.844
 20
722.112
 10
885.183
 20
722.406
 10
887.528
 20
722.666
 10
889.881
 20
722.891
 10
892.241
 20
723.079
 10
894.61
 20
723.231
 10
896.991
 20
723.344
 10
806.871
 20
739.581
  0
LWPOLYLINE
  5
2
  8
LAYER1
 90
    77
 10
804.905
 20
739.944
 10
777.252
 20
744.896
 10
763.815
 20
747.085
 10
754.751
 20
748.409
 10
748.314
 20
749.243
 10
743.173
 20
749.829
 10
739.199
 20
750.224
 10
735.341
 20
750.55
 10
731.595
 20
750.808
 10
728.856
 20
750.953
 10
726.174
 20
751.058
 10
723.548
 20
751.121
 10
720.974
 20
751.141
 10
719.287
 20
751.13
 10
717.622
 20
751.099
 10
715.979
 20
751.049
 10
714.356
 20
750.978
 10
712.752
 20
750.888
 10
711.168
 20
750.776
 10
709.603
 20
750.644
 10
708.056
 20
750.491
 10
706.526
 20
750.316
 10
705.013
 20
750.12
 10
703.515
 20
749.903
 10
702.033
 20
749.663
 10
700.566
 20
749.401
 10
699.113
 20
749.116
 10
697.672
 20
748.809
 10
696.245
 20
748.479
 10
695.536
 20
748.305
 10
694.126
 20
747.94
 10
692.728
 20
747.551
 10
692.032
 20
747.348
 10
691.339
 20
747.139
 10
689.961
 20
746.702
 10
689.275
 20
746.475
 10
687.909
 20
746.002
 10
686.552
 20
745.504
 10
685.202
 20
744.982
 10
683.859
 20
744.434
 10
683.189
 20
744.151
 10
681.855
 20
743.565
 10
680.525
 20
742.953
 10
679.2
 20
742.316
 10
677.878
 20
741.652
 10
676.56
 20
740.962
 10
675.244
 20
740.245
 10
673.93
 20
739.502
 10
672.616
 20
738.731
 10
671.303
 20
737.933
 10
669.99
 20
737.107
 10
668.676
 20
736.253
 10
667.36
 20
735.371
 10
666.042
 20
734.461
 10
664.721
 20
733.522
 10
663.396
 20
732.555
 10
662.067
 20
731.558
 10
660.733
 20
730.532
 10
658.721
 20
728.938
 10
656.695
 20
727.276
 10
654.651
 20
725.546
 10
652.588
 20
723.747
 10
649.804
 20
721.24
 10
646.975
 20
718.608
 10
643.371
 20
715.137
 10
639.679
 20
711.463
 10
635.119
 20
706.78
 10
629.599
 20
700.931
 10
634.845
 20
699.6
 10
642.059
 20
697.883
 10
648.124
 20
696.542
 10
654.082
 20
695.32
 10
659.935
 20
694.214
 10
665.684
 20
693.22
 10
671.333
 20
692.335
 10
676.882
 20
691.556
 10
676.883
 20
691.556
  0
LWPOLYLINE
  5
3
  8
LAYER1
 90
    35
 10
1041.13
 20
736.269
 10
1025.37
 20
734.604
 10
1006.69
 20
732.323
 10
986.839
 20
729.55
 10
953.322
 20
725.726
 10
953.324
 20
725.726
 10
960.997
 20
724.704
 10
968.99
 20
723.504
 10
977.285
 20
722.112
 10
985.417
 20
720.605
 10
993.835
 20
718.899
 10
1002.53
 20
716.986
 10
1011.9
 20
714.758
 10
1022.35
 20
712.087
 10
1034.21
 20
708.835
 10
1049.04
 20
704.501
 10
1114.73
 20
684.12
 10
1128.44
 20
680.211
 10
1139.15
 20
677.367
 10
1148.4
 20
675.085
 10
1156.56
 20
673.222
 10
1164.42
 20
671.568
 10
1171.98
 20
670.115
 10
1179.23
 20
668.851
 10
1181.14
 20
668.563
 10
1183.08
 20
668.302
 10
1185.04
 20
668.069
 10
1187.02
 20
667.864
 10
1189.01
 20
667.685
 10
1191.02
 20
667.533
 10
1193.04
 20
667.407
 10
1195.07
 20
667.307
 10
1197.1
 20
667.232
 10
1199.14
 20
667.182
 10
1201.19
 20
667.157
  0
LWPOLYLINE
  5
4
  8
LAYER1
 90
   152
 10
1203.19
 20
667.155
 10
1205.66
 20
667.184
 10
1208.12
 20
667.247
 10
1210.57
 20
667.342
 10
1213.01
 20
667.469
 10
1215.44
 20
667.628
 10
1217.85
 20
667.817
 10
1220.24
 20
668.036
 10
1222.61
 20
668.284
 10
1224.94
 20
668.561
 10
1227.25
 20
668.865
 10
1229.52
 20
669.196
 10
1231.75
 20
669.553
 10
1233.94
 20
669.936
 10
1236.08
 20
670.343
 10
1238.18
 20
670.775
 10
1240.22
 20
671.23
 10
1242.21
 20
671.707
 10
1243.18
 20
671.954
 10
1245.07
 20
672.464
 10
1246
 20
672.726
 10
1247.79
 20
673.267
 10
1248.66
 20
673.544
 10
1249.52
 20
673.827
 10
1250.35
 20
674.114
 10
1251.17
 20
674.406
 10
1251.97
 20
674.702
 10
1252.75
 20
675.003
 10
1253.5
 20
675.308
 10
1254.24
 20
675.617
 10
1254.96
 20
675.931
 10
1255.65
 20
676.249
 10
1256.32
 20
676.57
 10
1256.97
 20
676.896
 10
1257.6
 20
677.225
 10
1258.21
 20
677.558
 10
1258.79
 20
677.895
 10
1259.34
 20
678.235
 10
1259.87
 20
678.579
 10
1260.38
 20
678.926
 10
1260.86
 20
679.276
 10
1261.32
 20
679.63
 10
1261.75
 20
679.987
 10
1261.79
 20
680.051
 10
1262.52
 20
682.415
 10
1262.75
 20
683.199
 10
1262.96
 20
683.981
 10
1263.04
 20
684.315
 10
1263.14
 20
684.761
 10
1263.18
 20
684.983
 10
1263.23
 20
685.206
 10
1263.26
 20
685.428
 10
1263.3
 20
685.65
 10
1263.31
 20
685.761
 10
1263.33
 20
685.872
 10
1263.36
 20
686.205
 10
1263.38
 20
686.316
 10
1263.38
 20
686.427
 10
1263.4
 20
686.648
 10
1263.4
 20
686.759
 10
1263.41
 20
686.87
 10
1263.41
 20
687.424
 10
1263.4
 20
687.534
 10
1263.4
 20
687.645
 10
1263.35
 20
688.198
 10
1263.31
 20
688.419
 10
1263.3
 20
688.529
 10
1263.28
 20
688.64
 10
1263.25
 20
688.75
 10
1263.23
 20
688.861
 10
1263.2
 20
688.971
 10
1263.18
 20
689.081
 10
1262.73
 20
690.729
 10
1262.39
 20
691.81
 10
1262.21
 20
692.346
 10
1261.83
 20
693.408
 10
1261.2
 20
694.975
 10
1260.74
 20
696.004
 10
1260.26
 20
697.02
 10
1260.01
 20
697.522
 10
1259.75
 20
698.022
 10
1259.48
 20
698.518
 10
1258.92
 20
699.501
 10
1258.34
 20
700.471
 10
1258.04
 20
700.952
 10
1257.73
 20
701.429
 10
1257.09
 20
702.373
 10
1256.76
 20
702.84
 10
1256.08
 20
703.765
 10
1255.72
 20
704.223
 10
1255.37
 20
704.678
 10
1254.63
 20
705.577
 10
1253.87
 20
706.464
 10
1253.48
 20
706.903
 10
1253.08
 20
707.338
 10
1252.26
 20
708.2
 10
1251.42
 20
709.049
 10
1250.99
 20
709.469
 10
1250.11
 20
710.3
 10
1249.66
 20
710.71
 10
1249.2
 20
711.118
 10
1247.79
 20
712.322
 10
1246.82
 20
713.109
 10
1245.82
 20
713.884
 10
1245.31
 20
714.267
 10
1243.75
 20
715.397
 10
1242.13
 20
716.501
 10
1241.58
 20
716.862
 10
1240.45
 20
717.577
 10
1239.31
 20
718.279
 10
1238.14
 20
718.969
 10
1236.94
 20
719.648
 10
1235.73
 20
720.314
 10
1234.49
 20
720.969
 10
1233.22
 20
721.612
 10
1231.93
 20
722.243
 10
1230.62
 20
722.863
 10
1229.29
 20
723.471
 10
1227.93
 20
724.067
 10
1226.55
 20
724.652
 10
1225.15
 20
725.225
 10
1223.73
 20
725.787
 10
1222.29
 20
726.337
 10
1220.82
 20
726.877
 10
1218.58
 20
727.664
 10
1216.29
 20
728.426
 10
1213.96
 20
729.162
 10
1211.58
 20
729.874
 10
1209.15
 20
730.561
 10
1206.68
 20
731.223
 10
1204.16
 20
731.86
 10
1200.74
 20
732.672
 10
1197.24
 20
733.441
 10
1193.66
 20
734.167
 10
1190.01
 20
734.851
 10
1186.29
 20
735.492
 10
1181.54
 20
736.236
 10
1176.68
 20
736.915
 10
1171.71
 20
737.53
 10
1166.65
 20
738.082
 10
1160.44
 20
738.662
 10
1154.09
 20
739.154
 10
1146.52
 20
739.617
 10
1138.77
 20
739.963
 10
1129.72
 20
740.218
 10
1120.46
 20
740.325
 10
1109.82
 20
740.272
 10
1098.95
 20
740.041
 10
1086.63
 20
739.578
 10
1072.81
 20
738.826
 10
1058.73
 20
737.826
 10
1043.12
 20
736.461
  0
LWPOLYLINE
  5
5
  8
LAYER7
 90
     5
 10
1278.12
 20
-0.204754
 10
1278.12
 20
799.795
 10
28.121
 20
799.795
 10
28.121
 20
-0.204754
 10
1278.12
 20
-0.204754
  0
LWPOLYLINE
  5
6
  8
LAYER5
 90
     8
 10
73.8735
 20
335.2
 10
55.8735
 20
335.2
 10
55.8735
 20
332.2
 10
40.9192
 20
332.2
 10
78.0426
 20
165.092
 10
93.0045
 20
165.092
 10
93.0045
 20
162.092
 10
111.004
 20
162.092
  0
LWPOLYLINE
  5
7
  8
LAYER5
 90
    92
 10
115.004
 20
162.092
 10
133.004
 20
162.092
 10
133.004
 20
165.092
 10
148.042
 20
165.092
 10
148.041
 20
165.094
 10
146.838
 20
166.515
 10
146.243
 20
167.24
 10
145.652
 20
167.974
 10
145.064
 20
168.718
 10
143.901
 20
170.231
 10
142.754
 20
171.779
 10
141.623
 20
173.362
 10
140.509
 20
174.978
 10
139.41
 20
176.626
 10
138.328
 20
178.305
 10
137.262
 20
180.014
 10
136.213
 20
181.753
 10
135.18
 20
183.519
 10
134.163
 20
185.314
 10
133.163
 20
187.134
 10
132.179
 20
188.98
 10
131.212
 20
190.85
 10
130.262
 20
192.744
 10
128.868
 20
195.627
 10
127.512
 20
198.557
 10
126.193
 20
201.53
 10
124.913
 20
204.545
 10
123.671
 20
207.598
 10
122.467
 20
210.684
 10
121.302
 20
213.802
 10
120.176
 20
216.947
 10
119.089
 20
220.117
 10
117.701
 20
224.377
 10
116.382
 20
228.666
 10
115.134
 20
232.977
 10
113.957
 20
237.303
 10
112.851
 20
241.636
 10
111.817
 20
245.968
 10
110.854
 20
250.292
 10
109.965
 20
254.599
 10
109.148
 20
258.883
 10
108.404
 20
263.134
 10
107.734
 20
267.346
 10
107.139
 20
271.511
 10
106.617
 20
275.62
 10
106.171
 20
279.667
 10
105.8
 20
283.643
 10
105.571
 20
286.575
 10
105.386
 20
289.459
 10
105.243
 20
292.293
 10
105.143
 20
295.073
 10
105.087
 20
297.795
 10
105.074
 20
300.458
 10
105.104
 20
303.057
 10
105.149
 20
304.753
 10
105.214
 20
306.418
 10
105.297
 20
308.051
 10
105.401
 20
309.652
 10
105.524
 20
311.22
 10
105.667
 20
312.753
 10
105.83
 20
314.25
 10
106.012
 20
315.711
 10
106.215
 20
317.134
 10
106.323
 20
317.832
 10
106.437
 20
318.519
 10
106.679
 20
319.865
 10
106.808
 20
320.523
 10
106.942
 20
321.171
 10
107.081
 20
321.808
 10
107.224
 20
322.435
 10
107.373
 20
323.051
 10
107.527
 20
323.656
 10
107.686
 20
324.251
 10
107.85
 20
324.835
 10
108.019
 20
325.408
 10
108.193
 20
325.97
 10
108.372
 20
326.52
 10
108.556
 20
327.059
 10
108.745
 20
327.586
 10
108.94
 20
328.102
 10
109.139
 20
328.606
 10
109.344
 20
329.098
 10
109.553
 20
329.578
 10
109.768
 20
330.046
 10
109.988
 20
330.502
 10
110.213
 20
330.945
 10
110.443
 20
331.376
 10
110.679
 20
331.794
 10
110.919
 20
332.2
 10
95.8736
 20
332.2
 10
95.8736
 20
335.2
 10
77.8735
 20
335.2
  0
LWPOLYLINE
  5
8
  8
LAYER5
 90
    91
 10
126.657
 20
404.161
 10
108.657
 20
404.161
 10
108.657
 20
401.161
 10
93.6192
 20
401.161
 10
94.2237
 20
400.453
 10
94.8232
 20
399.738
 10
95.4186
 20
399.013
 10
96.0101
 20
398.279
 10
97.181
 20
396.783
 10
97.7605
 20
396.022
 10
98.9074
 20
394.474
 10
100.038
 20
392.891
 10
101.153
 20
391.275
 10
102.251
 20
389.627
 10
103.333
 20
387.948
 10
104.399
 20
386.239
 10
105.449
 20
384.5
 10
106.482
 20
382.734
 10
107.499
 20
380.939
 10
108.499
 20
379.119
 10
109.482
 20
377.273
 10
110.449
 20
375.403
 10
111.4
 20
373.509
 10
112.794
 20
370.626
 10
114.15
 20
367.697
 10
115.469
 20
364.723
 10
116.749
 20
361.708
 10
117.991
 20
358.655
 10
119.195
 20
355.569
 10
120.359
 20
352.451
 10
121.486
 20
349.306
 10
122.573
 20
346.136
 10
123.961
 20
341.876
 10
125.28
 20
337.587
 10
126.528
 20
333.276
 10
127.705
 20
328.95
 10
128.811
 20
324.617
 10
129.845
 20
320.284
 10
130.807
 20
315.961
 10
131.697
 20
311.654
 10
132.514
 20
307.371
 10
133.258
 20
303.119
 10
133.927
 20
298.908
 10
134.523
 20
294.743
 10
135.044
 20
290.634
 10
135.491
 20
286.587
 10
135.862
 20
282.61
 10
136.09
 20
279.679
 10
136.276
 20
276.795
 10
136.419
 20
273.961
 10
136.519
 20
271.181
 10
136.575
 20
268.458
 10
136.588
 20
265.796
 10
136.557
 20
263.197
 10
136.512
 20
261.501
 10
136.448
 20
259.836
 10
136.364
 20
258.202
 10
136.261
 20
256.601
 10
136.137
 20
255.033
 10
135.995
 20
253.5
 10
135.832
 20
252.003
 10
135.649
 20
250.542
 10
135.447
 20
249.119
 10
135.225
 20
247.734
 10
135.106
 20
247.056
 10
134.854
 20
245.73
 10
134.72
 20
245.082
 10
134.581
 20
244.445
 10
134.437
 20
243.818
 10
134.289
 20
243.202
 10
134.135
 20
242.596
 10
133.976
 20
242.002
 10
133.812
 20
241.418
 10
133.643
 20
240.845
 10
133.469
 20
240.283
 10
133.29
 20
239.733
 10
133.106
 20
239.194
 10
132.916
 20
238.667
 10
132.722
 20
238.151
 10
132.523
 20
237.647
 10
132.318
 20
237.155
 10
132.108
 20
236.675
 10
131.893
 20
236.207
 10
131.674
 20
235.751
 10
131.449
 20
235.308
 10
131.218
 20
234.877
 10
130.983
 20
234.459
 10
130.742
 20
234.053
 10
145.788
 20
234.053
 10
145.788
 20
231.053
 10
163.788
 20
231.053
  0
LWPOLYLINE
  5
9
  8
LAYER5
 90
     8
 10
167.788
 20
231.053
 10
185.788
 20
231.053
 10
185.788
 20
234.053
 10
200.742
 20
234.053
 10
163.619
 20
401.161
 10
148.657
 20
401.161
 10
148.657
 20
404.161
 10
130.657
 20
404.161
  0
LWPOLYLINE
  5
a
  8
LAYER5
 90
    92
 10
206.33
 20
404.161
 10
188.33
 20
404.161
 10
188.33
 20
401.161
 10
173.292
 20
401.161
 10
173.896
 20
400.453
 10
174.495
 20
399.738
 10
175.091
 20
399.013
 10
175.682
 20
398.279
 10
176.27
 20
397.535
 10
177.433
 20
396.022
 10
178.58
 20
394.474
 10
179.711
 20
392.891
 10
180.825
 20
391.275
 10
181.924
 20
389.627
 10
183.006
 20
387.948
 10
184.072
 20
386.239
 10
185.121
 20
384.5
 10
186.154
 20
382.734
 10
187.171
 20
380.939
 10
188.171
 20
379.119
 10
189.155
 20
377.273
 10
190.122
 20
375.403
 10
191.072
 20
373.509
 10
192.466
 20
370.626
 10
193.823
 20
367.697
 10
195.141
 20
364.723
 10
196.421
 20
361.708
 10
197.663
 20
358.655
 10
198.867
 20
355.569
 10
200.032
 20
352.451
 10
201.158
 20
349.306
 10
202.245
 20
346.136
 10
203.633
 20
341.876
 10
204.952
 20
337.587
 10
206.2
 20
333.276
 10
207.377
 20
328.95
 10
208.483
 20
324.617
 10
209.517
 20
320.284
 10
210.48
 20
315.961
 10
211.369
 20
311.654
 10
212.186
 20
307.371
 10
212.93
 20
303.119
 10
213.6
 20
298.908
 10
214.196
 20
294.743
 10
214.717
 20
290.634
 10
215.163
 20
286.587
 10
215.534
 20
282.61
 10
215.763
 20
279.679
 10
215.949
 20
276.795
 10
216.091
 20
273.961
 10
216.191
 20
271.181
 10
216.248
 20
268.458
 10
216.26
 20
265.796
 10
216.23
 20
263.197
 10
216.185
 20
261.501
 10
216.121
 20
259.836
 10
216.037
 20
258.202
 10
215.933
 20
256.601
 10
215.81
 20
255.033
 10
215.667
 20
253.5
 10
215.504
 20
252.003
 10
215.322
 20
250.542
 10
215.119
 20
249.119
 10
215.011
 20
248.421
 10
214.897
 20
247.734
 10
214.655
 20
246.388
 10
214.526
 20
245.73
 10
214.392
 20
245.082
 10
214.254
 20
244.445
 10
214.11
 20
243.818
 10
213.961
 20
243.202
 10
213.807
 20
242.596
 10
213.648
 20
242.002
 10
213.484
 20
241.418
 10
213.315
 20
240.845
 10
213.141
 20
240.283
 10
212.962
 20
239.733
 10
212.778
 20
239.194
 10
212.589
 20
238.667
 10
212.394
 20
238.151
 10
212.195
 20
237.647
 10
211.99
 20
237.155
 10
211.781
 20
236.675
 10
211.566
 20
236.207
 10
211.346
 20
235.751
 10
211.121
 20
235.308
 10
210.891
 20
234.877
 10
210.655
 20
234.459
 10
210.415
 20
234.053
 10
225.461
 20
234.053
 10
225.461
 20
231.053
 10
243.461
 20
231.053
  0
LWPOLYLINE
  5
b
  8
LAYER5
 90
     8
 10
247.461
 20
231.053
 10
265.461
 20
231.053
 10
265.461
 20
234.053
 10
280.415
 20
234.053
 10
243.291
 20
401.161
 10
228.33
 20
401.161
 10
228.33
 20
404.161
 10
210.33
 20
404.161
  0
LWPOLYLINE
  5
c
  8
LAYER5
 90
    92
 10
299.1
 20
404.161
 10
281.1
 20
404.161
 10
281.1
 20
401.161
 10
266.061
 20
401.161
 10
266.666
 20
400.453
 10
267.265
 20
399.738
 10
267.861
 20
399.013
 10
268.452
 20
398.279
 10
269.04
 20
397.535
 10
270.203
 20
396.022
 10
271.349
 20
394.474
 10
272.48
 20
392.891
 10
273.595
 20
391.275
 10
274.693
 20
389.627
 10
275.776
 20
387.948
 10
276.842
 20
386.239
 10
277.891
 20
384.5
 10
278.924
 20
382.734
 10
279.941
 20
380.939
 10
280.941
 20
379.119
 10
281.925
 20
377.273
 10
282.892
 20
375.403
 10
283.842
 20
373.509
 10
285.236
 20
370.626
 10
286.592
 20
367.697
 10
287.911
 20
364.723
 10
289.191
 20
361.708
 10
290.433
 20
358.655
 10
291.637
 20
355.569
 10
292.802
 20
352.451
 10
293.928
 20
349.306
 10
295.015
 20
346.136
 10
296.403
 20
341.876
 10
297.722
 20
337.587
 10
298.97
 20
333.276
 10
300.147
 20
328.95
 10
301.253
 20
324.617
 10
302.287
 20
320.284
 10
303.25
 20
315.961
 10
304.139
 20
311.654
 10
304.956
 20
307.371
 10
305.7
 20
303.119
 10
306.37
 20
298.908
 10
306.965
 20
294.743
 10
307.487
 20
290.634
 10
307.933
 20
286.587
 10
308.304
 20
282.61
 10
308.533
 20
279.679
 10
308.718
 20
276.795
 10
308.861
 20
273.961
 10
308.961
 20
271.181
 10
309.017
 20
268.458
 10
309.03
 20
265.796
 10
309
 20
263.197
 10
308.955
 20
261.501
 10
308.891
 20
259.836
 10
308.807
 20
258.202
 10
308.703
 20
256.601
 10
308.58
 20
255.033
 10
308.437
 20
253.5
 10
308.274
 20
252.003
 10
308.092
 20
250.542
 10
307.889
 20
249.119
 10
307.781
 20
248.421
 10
307.667
 20
247.734
 10
307.548
 20
247.056
 10
307.296
 20
245.73
 10
307.162
 20
245.082
 10
307.023
 20
244.445
 10
306.88
 20
243.818
 10
306.731
 20
243.202
 10
306.577
 20
242.596
 10
306.418
 20
242.002
 10
306.254
 20
241.418
 10
306.085
 20
240.845
 10
305.911
 20
240.283
 10
305.732
 20
239.733
 10
305.548
 20
239.194
 10
305.359
 20
238.667
 10
305.164
 20
238.151
 10
304.965
 20
237.647
 10
304.76
 20
237.155
 10
304.551
 20
236.675
 10
304.336
 20
236.207
 10
304.116
 20
235.751
 10
303.891
 20
235.308
 10
303.661
 20
234.877
 10
303.425
 20
234.459
 10
303.185
 20
234.053
 10
318.23
 20
234.053
 10
318.23
 20
231.053
 10
336.23
 20
231.053
  0
LWPOLYLINE
  5
d
  8
LAYER5
 90
     8
 10
340.23
 20
231.053
 10
358.23
 20
231.053
 10
358.23
 20
234.053
 10
373.185
 20
234.053
 10
336.061
 20
401.161
 10
321.1
 20
401.161
 10
321.1
 20
404.161
 10
303.1
 20
404.161
  0
LWPOLYLINE
  5
e
  8
LAYER10
 90
     4
 10
87.5934
 20
475.796
 10
106.412
 20
450.077
 10
456.412
 20
452.994
 10
470.356
 20
475.42
  0
LWPOLYLINE
  5
f
  8
LAYER10
 90
     4
 10
472.468
 20
478.817
 10
486.412
 20
501.244
 10
66.4123
 20
504.744
 10
85.2314
 20
479.024
  0
LWPOLYLINE
  5
10
  8
LAYER2
 90
   568
 10
154.011
 20
487.144
 10
153.835
 20
487.215
 10
153.835
 20
487.215
 10
152.688
 20
487.708
 10
151.787
 20
488.06
 10
151.322
 20
488.228
 10
151.322
 20
488.228
 10
151.168
 20
488.279
 10
151.01
 20
488.326
 10
150.848
 20
488.37
 10
150.681
 20
488.411
 10
150.51
 20
488.448
 10
150.334
 20
488.481
 10
150.063
 20
488.525
 10
149.782
 20
488.561
 10
149.492
 20
488.588
 10
149.192
 20
488.608
 10
148.882
 20
488.62
 10
148.562
 20
488.624
 10
148.562
 20
488.624
 10
148.331
 20
488.62
 10
148.101
 20
488.61
 10
147.871
 20
488.592
 10
147.641
 20
488.566
 10
147.411
 20
488.534
 10
147.182
 20
488.494
 10
146.953
 20
488.447
 10
146.725
 20
488.393
 10
146.497
 20
488.331
 10
146.269
 20
488.263
 10
146.269
 20
488.263
 10
146.044
 20
488.187
 10
145.824
 20
488.105
 10
145.609
 20
488.017
 10
145.4
 20
487.922
 10
145.262
 20
487.855
 10
145.127
 20
487.785
 10
144.995
 20
487.712
 10
144.864
 20
487.636
 10
144.736
 20
487.558
 10
144.61
 20
487.476
 10
144.486
 20
487.392
 10
144.365
 20
487.305
 10
144.246
 20
487.214
 10
144.246
 20
487.214
 10
144.129
 20
487.122
 10
144.016
 20
487.026
 10
143.905
 20
486.928
 10
143.798
 20
486.828
 10
143.693
 20
486.725
 10
143.592
 20
486.619
 10
143.494
 20
486.511
 10
143.398
 20
486.4
 10
143.306
 20
486.287
 10
143.217
 20
486.171
 10
143.131
 20
486.053
 10
143.048
 20
485.932
 10
142.968
 20
485.809
 10
142.891
 20
485.683
 10
142.817
 20
485.554
 10
142.817
 20
485.554
 10
142.747
 20
485.423
 10
142.714
 20
485.357
 10
142.682
 20
485.291
 10
142.652
 20
485.224
 10
142.622
 20
485.156
 10
142.594
 20
485.088
 10
142.567
 20
485.02
 10
142.541
 20
484.951
 10
142.516
 20
484.881
 10
142.492
 20
484.811
 10
142.47
 20
484.741
 10
142.429
 20
484.599
 10
142.393
 20
484.454
 10
142.362
 20
484.308
 10
142.335
 20
484.16
 10
142.313
 20
484.01
 10
142.297
 20
483.859
 10
142.284
 20
483.705
 10
142.277
 20
483.549
 10
142.275
 20
483.392
 10
142.275
 20
482.995
 10
142.275
 20
482.995
 10
142.278
 20
482.833
 10
142.286
 20
482.672
 10
142.299
 20
482.512
 10
142.308
 20
482.432
 10
142.318
 20
482.353
 10
142.33
 20
482.275
 10
142.343
 20
482.196
 10
142.357
 20
482.119
 10
142.373
 20
482.041
 10
142.39
 20
481.964
 10
142.408
 20
481.887
 10
142.428
 20
481.81
 10
142.449
 20
481.734
 10
142.472
 20
481.658
 10
142.496
 20
481.583
 10
142.521
 20
481.508
 10
142.547
 20
481.433
 10
142.575
 20
481.358
 10
142.605
 20
481.284
 10
142.667
 20
481.137
 10
142.735
 20
480.992
 10
142.809
 20
480.847
 10
142.888
 20
480.705
 10
142.888
 20
480.705
 10
142.971
 20
480.565
 10
143.057
 20
480.429
 10
143.146
 20
480.298
 10
143.238
 20
480.171
 10
143.333
 20
480.048
 10
143.431
 20
479.929
 10
143.532
 20
479.815
 10
143.636
 20
479.705
 10
143.742
 20
479.6
 10
143.852
 20
479.499
 10
143.964
 20
479.402
 10
144.022
 20
479.355
 10
144.08
 20
479.309
 10
144.139
 20
479.265
 10
144.198
 20
479.221
 10
144.259
 20
479.178
 10
144.32
 20
479.137
 10
144.381
 20
479.097
 10
144.444
 20
479.057
 10
144.444
 20
479.057
 10
144.661
 20
478.934
 10
144.89
 20
478.815
 10
145.131
 20
478.698
 10
145.448
 20
478.556
 10
145.783
 20
478.42
 10
146.21
 20
478.263
 10
146.358
 20
478.212
 10
146.358
 20
478.212
 10
146.743
 20
478.089
 10
147.152
 20
477.974
 10
147.675
 20
477.845
 10
148.328
 20
477.709
 10
149.029
 20
477.586
 10
149.029
 20
477.586
 10
149.621
 20
477.493
 10
150.183
 20
477.388
 10
150.716
 20
477.271
 10
151.054
 20
477.188
 10
151.38
 20
477.099
 10
151.692
 20
477.005
 10
151.991
 20
476.906
 10
152.277
 20
476.802
 10
152.55
 20
476.694
 10
152.81
 20
476.58
 10
152.934
 20
476.521
 10
153.056
 20
476.461
 10
153.174
 20
476.4
 10
153.289
 20
476.337
 10
153.401
 20
476.273
 10
153.509
 20
476.208
 10
153.614
 20
476.142
 10
153.614
 20
476.142
 10
153.667
 20
476.107
 10
153.719
 20
476.071
 10
153.772
 20
476.034
 10
153.823
 20
475.996
 10
153.926
 20
475.917
 10
154.026
 20
475.833
 10
154.126
 20
475.744
 10
154.224
 20
475.65
 10
154.321
 20
475.553
 10
154.416
 20
475.45
 10
154.51
 20
475.343
 10
154.602
 20
475.231
 10
154.693
 20
475.115
 10
154.783
 20
474.994
 10
154.871
 20
474.869
 10
154.957
 20
474.739
 10
155.043
 20
474.604
 10
155.043
 20
474.604
 10
155.084
 20
474.536
 10
155.125
 20
474.466
 10
155.163
 20
474.395
 10
155.201
 20
474.324
 10
155.237
 20
474.252
 10
155.271
 20
474.179
 10
155.304
 20
474.105
 10
155.336
 20
474.03
 10
155.366
 20
473.954
 10
155.395
 20
473.878
 10
155.423
 20
473.8
 10
155.449
 20
473.722
 10
155.474
 20
473.643
 10
155.497
 20
473.563
 10
155.519
 20
473.483
 10
155.539
 20
473.401
 10
155.558
 20
473.319
 10
155.576
 20
473.235
 10
155.592
 20
473.151
 10
155.607
 20
473.066
 10
155.632
 20
472.893
 10
155.652
 20
472.717
 10
155.666
 20
472.538
 10
155.675
 20
472.355
 10
155.677
 20
472.169
 10
155.677
 20
472.169
 10
155.675
 20
471.988
 10
155.668
 20
471.809
 10
155.657
 20
471.633
 10
155.641
 20
471.458
 10
155.621
 20
471.286
 10
155.596
 20
471.116
 10
155.567
 20
470.948
 10
155.533
 20
470.783
 10
155.495
 20
470.619
 10
155.452
 20
470.458
 10
155.405
 20
470.299
 10
155.353
 20
470.142
 10
155.297
 20
469.987
 10
155.236
 20
469.835
 10
155.171
 20
469.685
 10
155.171
 20
469.685
 10
155.101
 20
469.537
 10
155.029
 20
469.392
 10
154.953
 20
469.25
 10
154.873
 20
469.111
 10
154.791
 20
468.975
 10
154.704
 20
468.841
 10
154.615
 20
468.71
 10
154.522
 20
468.583
 10
154.426
 20
468.458
 10
154.326
 20
468.336
 10
154.223
 20
468.217
 10
154.117
 20
468.1
 10
154.007
 20
467.987
 10
153.894
 20
467.876
 10
153.777
 20
467.769
 10
153.777
 20
467.769
 10
153.658
 20
467.664
 10
153.535
 20
467.563
 10
153.409
 20
467.465
 10
153.281
 20
467.371
 10
153.149
 20
467.28
 10
153.014
 20
467.192
 10
152.876
 20
467.108
 10
152.736
 20
467.027
 10
152.592
 20
466.95
 10
152.445
 20
466.876
 10
152.295
 20
466.806
 10
152.142
 20
466.738
 10
151.986
 20
466.675
 10
151.828
 20
466.614
 10
151.666
 20
466.557
 10
151.666
 20
466.557
 10
151.419
 20
466.479
 10
151.168
 20
466.408
 10
150.914
 20
466.346
 10
150.656
 20
466.293
 10
150.394
 20
466.247
 10
150.128
 20
466.21
 10
149.859
 20
466.181
 10
149.586
 20
466.16
 10
149.309
 20
466.148
 10
149.029
 20
466.144
 10
149.029
 20
466.144
 10
148.39
 20
466.153
 10
147.779
 20
466.182
 10
147.34
 20
466.216
 10
146.917
 20
466.262
 10
146.51
 20
466.318
 10
146.12
 20
466.384
 10
145.868
 20
466.435
 10
145.624
 20
466.49
 10
145.387
 20
466.55
 10
145.156
 20
466.615
 10
144.934
 20
466.685
 10
144.934
 20
466.685
 10
144.606
 20
466.798
 10
144.281
 20
466.921
 10
143.958
 20
467.053
 10
143.638
 20
467.194
 10
143.321
 20
467.345
 10
143.006
 20
467.505
 10
142.694
 20
467.675
 10
142.384
 20
467.854
 10
141.975
 20
468.107
 10
141.773
 20
468.24
 10
141.773
 20
468.24
 10
142.179
 20
467.978
 10
142.487
 20
467.793
 10
142.798
 20
467.617
 10
143.111
 20
467.451
 10
143.427
 20
467.294
 10
143.745
 20
467.146
 10
144.066
 20
467.008
 10
144.389
 20
466.879
 10
144.715
 20
466.76
 10
144.934
 20
466.685
 10
144.934
 20
466.685
 10
145.156
 20
466.615
 10
145.387
 20
466.55
 10
145.624
 20
466.49
 10
145.868
 20
466.435
 10
146.12
 20
466.384
 10
146.51
 20
466.318
 10
146.917
 20
466.262
 10
147.34
 20
466.216
 10
147.779
 20
466.182
 10
148.39
 20
466.153
 10
149.029
 20
466.144
 10
149.029
 20
466.144
 10
149.309
 20
466.148
 10
149.586
 20
466.16
 10
149.859
 20
466.181
 10
150.128
 20
466.21
 10
150.394
 20
466.247
 10
150.656
 20
466.293
 10
150.914
 20
466.346
 10
151.168
 20
466.408
 10
151.419
 20
466.479
 10
151.666
 20
466.557
 10
151.666
 20
466.557
 10
151.828
 20
466.614
 10
151.986
 20
466.675
 10
152.142
 20
466.738
 10
152.295
 20
466.806
 10
152.445
 20
466.876
 10
152.592
 20
466.95
 10
152.736
 20
467.027
 10
152.876
 20
467.108
 10
153.014
 20
467.192
 10
153.149
 20
467.28
 10
153.281
 20
467.371
 10
153.409
 20
467.465
 10
153.535
 20
467.563
 10
153.658
 20
467.664
 10
153.777
 20
467.769
 10
153.777
 20
467.769
 10
153.894
 20
467.876
 10
154.007
 20
467.987
 10
154.117
 20
468.1
 10
154.223
 20
468.217
 10
154.326
 20
468.336
 10
154.426
 20
468.458
 10
154.522
 20
468.583
 10
154.615
 20
468.71
 10
154.704
 20
468.841
 10
154.791
 20
468.975
 10
154.873
 20
469.111
 10
154.953
 20
469.25
 10
155.029
 20
469.392
 10
155.101
 20
469.537
 10
155.171
 20
469.685
 10
155.171
 20
469.685
 10
155.236
 20
469.835
 10
155.297
 20
469.987
 10
155.353
 20
470.142
 10
155.405
 20
470.299
 10
155.452
 20
470.458
 10
155.495
 20
470.619
 10
155.533
 20
470.783
 10
155.567
 20
470.948
 10
155.596
 20
471.116
 10
155.621
 20
471.286
 10
155.641
 20
471.458
 10
155.657
 20
471.633
 10
155.668
 20
471.809
 10
155.675
 20
471.988
 10
155.677
 20
472.169
 10
155.677
 20
472.169
 10
155.675
 20
472.355
 10
155.666
 20
472.538
 10
155.652
 20
472.717
 10
155.632
 20
472.893
 10
155.607
 20
473.066
 10
155.592
 20
473.151
 10
155.576
 20
473.235
 10
155.558
 20
473.319
 10
155.539
 20
473.401
 10
155.519
 20
473.483
 10
155.497
 20
473.563
 10
155.474
 20
473.643
 10
155.449
 20
473.722
 10
155.423
 20
473.8
 10
155.395
 20
473.878
 10
155.366
 20
473.954
 10
155.336
 20
474.03
 10
155.304
 20
474.105
 10
155.271
 20
474.179
 10
155.237
 20
474.252
 10
155.201
 20
474.324
 10
155.163
 20
474.395
 10
155.125
 20
474.466
 10
155.084
 20
474.536
 10
155.043
 20
474.604
 10
155.043
 20
474.604
 10
154.914
 20
474.805
 10
154.827
 20
474.932
 10
154.738
 20
475.055
 10
154.648
 20
475.174
 10
154.556
 20
475.288
 10
154.463
 20
475.397
 10
154.368
 20
475.502
 10
154.272
 20
475.602
 10
154.175
 20
475.698
 10
154.076
 20
475.789
 10
153.976
 20
475.875
 10
153.875
 20
475.957
 10
153.823
 20
475.996
 10
153.772
 20
476.034
 10
153.719
 20
476.071
 10
153.667
 20
476.107
 10
153.614
 20
476.142
 10
153.614
 20
476.142
 10
153.509
 20
476.208
 10
153.401
 20
476.273
 10
153.289
 20
476.337
 10
153.174
 20
476.4
 10
153.056
 20
476.461
 10
152.934
 20
476.521
 10
152.81
 20
476.58
 10
152.55
 20
476.694
 10
152.277
 20
476.802
 10
151.991
 20
476.906
 10
151.692
 20
477.005
 10
151.38
 20
477.099
 10
151.054
 20
477.188
 10
150.542
 20
477.311
 10
149.999
 20
477.424
 10
149.427
 20
477.525
 10
149.029
 20
477.586
 10
149.029
 20
477.586
 10
148.328
 20
477.709
 10
147.765
 20
477.825
 10
147.237
 20
477.952
 10
146.823
 20
478.066
 10
146.509
 20
478.162
 10
146.358
 20
478.212
 10
146.358
 20
478.212
 10
145.923
 20
478.367
 10
145.58
 20
478.501
 10
145.256
 20
478.641
 10
145.009
 20
478.756
 10
144.774
 20
478.874
 10
144.551
 20
478.995
 10
144.444
 20
479.057
 10
144.444
 20
479.057
 10
144.381
 20
479.097
 10
144.32
 20
479.137
 10
144.259
 20
479.178
 10
144.198
 20
479.221
 10
144.139
 20
479.265
 10
144.08
 20
479.309
 10
144.022
 20
479.355
 10
143.964
 20
479.402
 10
143.852
 20
479.499
 10
143.742
 20
479.6
 10
143.636
 20
479.705
 10
143.532
 20
479.815
 10
143.431
 20
479.929
 10
143.333
 20
480.048
 10
143.238
 20
480.171
 10
143.146
 20
480.298
 10
143.057
 20
480.429
 10
142.971
 20
480.565
 10
142.888
 20
480.705
 10
142.888
 20
480.705
 10
142.809
 20
480.847
 10
142.735
 20
480.992
 10
142.667
 20
481.137
 10
142.605
 20
481.284
 10
142.575
 20
481.358
 10
142.547
 20
481.433
 10
142.521
 20
481.508
 10
142.496
 20
481.583
 10
142.472
 20
481.658
 10
142.449
 20
481.734
 10
142.428
 20
481.81
 10
142.408
 20
481.887
 10
142.39
 20
481.964
 10
142.373
 20
482.041
 10
142.357
 20
482.119
 10
142.343
 20
482.196
 10
142.33
 20
482.275
 10
142.318
 20
482.353
 10
142.308
 20
482.432
 10
142.292
 20
482.592
 10
142.281
 20
482.752
 10
142.276
 20
482.914
 10
142.275
 20
482.995
 10
142.275
 20
483.392
 10
142.275
 20
483.392
 10
142.277
 20
483.549
 10
142.284
 20
483.705
 10
142.297
 20
483.859
 10
142.313
 20
484.01
 10
142.335
 20
484.16
 10
142.362
 20
484.308
 10
142.393
 20
484.454
 10
142.429
 20
484.599
 10
142.47
 20
484.741
 10
142.492
 20
484.811
 10
142.516
 20
484.881
 10
142.541
 20
484.951
 10
142.567
 20
485.02
 10
142.594
 20
485.088
 10
142.622
 20
485.156
 10
142.652
 20
485.224
 10
142.682
 20
485.291
 10
142.714
 20
485.357
 10
142.782
 20
485.489
 10
142.817
 20
485.554
 10
142.817
 20
485.554
 10
142.891
 20
485.683
 10
142.968
 20
485.809
 10
143.048
 20
485.932
 10
143.131
 20
486.053
 10
143.217
 20
486.171
 10
143.306
 20
486.287
 10
143.398
 20
486.4
 10
143.494
 20
486.511
 10
143.592
 20
486.619
 10
143.693
 20
486.725
 10
143.798
 20
486.828
 10
143.905
 20
486.928
 10
144.016
 20
487.026
 10
144.129
 20
487.122
 10
144.246
 20
487.214
 10
144.246
 20
487.214
 10
144.365
 20
487.305
 10
144.486
 20
487.392
 10
144.61
 20
487.476
 10
144.736
 20
487.558
 10
144.864
 20
487.636
 10
144.995
 20
487.712
 10
145.127
 20
487.785
 10
145.262
 20
487.855
 10
145.4
 20
487.922
 10
145.609
 20
488.017
 10
145.824
 20
488.105
 10
146.044
 20
488.187
 10
146.269
 20
488.263
 10
146.269
 20
488.263
 10
146.497
 20
488.331
 10
146.725
 20
488.393
 10
146.953
 20
488.447
 10
147.182
 20
488.494
 10
147.411
 20
488.534
 10
147.641
 20
488.566
 10
147.871
 20
488.592
 10
148.101
 20
488.61
 10
148.331
 20
488.62
 10
148.562
 20
488.624
 10
148.562
 20
488.624
 10
148.986
 20
488.617
 10
149.293
 20
488.602
 10
149.59
 20
488.58
 10
149.877
 20
488.55
 10
150.155
 20
488.511
 10
150.334
 20
488.481
 10
150.51
 20
488.448
 10
150.681
 20
488.411
 10
150.848
 20
488.37
 10
151.01
 20
488.326
 10
151.168
 20
488.279
 10
151.322
 20
488.228
 10
151.322
 20
488.228
 10
152.107
 20
487.939
 10
153.206
 20
487.491
 10
153.835
 20
487.215
 10
154.011
 20
487.144
  0
LWPOLYLINE
  5
11
  8
LAYER2
 90
     3
 10
163.431
 20
488.546
 10
163.431
 20
487.17
 10
163.431
 20
488.546
  0
LWPOLYLINE
  5
12
  8
LAYER2
 90
     3
 10
163.431
 20
481.436
 10
163.431
 20
466.26
 10
163.431
 20
481.436
  0
LWPOLYLINE
  5
13
  8
LAYER2
 90
     9
 10
171.468
 20
481.26
 10
176.379
 20
473.873
 10
181.546
 20
466.221
 10
176.379
 20
473.873
 10
181.291
 20
481.26
 10
176.379
 20
473.873
 10
171.247
 20
466.221
 10
176.379
 20
473.873
 10
171.468
 20
481.26
  0
LWPOLYLINE
  5
14
  8
LAYER2
 90
   133
 10
189.49
 20
486.91
 10
189.49
 20
481.383
 10
189.49
 20
469.738
 10
189.49
 20
469.738
 10
189.49
 20
469.642
 10
189.493
 20
469.547
 10
189.498
 20
469.453
 10
189.504
 20
469.36
 10
189.513
 20
469.268
 10
189.523
 20
469.177
 10
189.535
 20
469.088
 10
189.548
 20
468.999
 10
189.564
 20
468.911
 10
189.582
 20
468.825
 10
189.601
 20
468.739
 10
189.622
 20
468.655
 10
189.645
 20
468.571
 10
189.67
 20
468.489
 10
189.697
 20
468.408
 10
189.725
 20
468.327
 10
189.756
 20
468.248
 10
189.788
 20
468.17
 10
189.822
 20
468.093
 10
189.858
 20
468.017
 10
189.896
 20
467.942
 10
189.935
 20
467.868
 10
189.977
 20
467.795
 10
190.02
 20
467.723
 10
190.065
 20
467.652
 10
190.112
 20
467.582
 10
190.161
 20
467.514
 10
190.212
 20
467.446
 10
190.264
 20
467.379
 10
190.318
 20
467.314
 10
190.318
 20
467.314
 10
190.374
 20
467.25
 10
190.432
 20
467.188
 10
190.49
 20
467.129
 10
190.55
 20
467.071
 10
190.612
 20
467.016
 10
190.675
 20
466.963
 10
190.739
 20
466.912
 10
190.804
 20
466.863
 10
190.871
 20
466.816
 10
190.94
 20
466.772
 10
191.009
 20
466.73
 10
191.08
 20
466.69
 10
191.153
 20
466.652
 10
191.226
 20
466.616
 10
191.302
 20
466.582
 10
191.378
 20
466.551
 10
191.456
 20
466.522
 10
191.535
 20
466.494
 10
191.616
 20
466.469
 10
191.698
 20
466.447
 10
191.781
 20
466.426
 10
191.866
 20
466.408
 10
191.952
 20
466.391
 10
192.04
 20
466.377
 10
192.129
 20
466.365
 10
192.219
 20
466.356
 10
192.311
 20
466.348
 10
192.404
 20
466.343
 10
192.498
 20
466.339
 10
192.594
 20
466.338
 10
192.594
 20
466.338
 10
192.498
 20
466.339
 10
192.404
 20
466.343
 10
192.311
 20
466.348
 10
192.219
 20
466.356
 10
192.129
 20
466.365
 10
192.04
 20
466.377
 10
191.952
 20
466.391
 10
191.866
 20
466.408
 10
191.781
 20
466.426
 10
191.698
 20
466.447
 10
191.616
 20
466.469
 10
191.535
 20
466.494
 10
191.456
 20
466.522
 10
191.378
 20
466.551
 10
191.302
 20
466.582
 10
191.226
 20
466.616
 10
191.153
 20
466.652
 10
191.08
 20
466.69
 10
191.009
 20
466.73
 10
190.94
 20
466.772
 10
190.871
 20
466.816
 10
190.804
 20
466.863
 10
190.739
 20
466.912
 10
190.675
 20
466.963
 10
190.612
 20
467.016
 10
190.55
 20
467.071
 10
190.49
 20
467.129
 10
190.432
 20
467.188
 10
190.374
 20
467.25
 10
190.318
 20
467.314
 10
190.318
 20
467.314
 10
190.264
 20
467.379
 10
190.212
 20
467.446
 10
190.161
 20
467.514
 10
190.112
 20
467.582
 10
190.065
 20
467.652
 10
190.02
 20
467.723
 10
189.977
 20
467.795
 10
189.935
 20
467.868
 10
189.896
 20
467.942
 10
189.858
 20
468.017
 10
189.822
 20
468.093
 10
189.788
 20
468.17
 10
189.756
 20
468.248
 10
189.725
 20
468.327
 10
189.697
 20
468.408
 10
189.67
 20
468.489
 10
189.645
 20
468.571
 10
189.622
 20
468.655
 10
189.601
 20
468.739
 10
189.582
 20
468.825
 10
189.564
 20
468.911
 10
189.548
 20
468.999
 10
189.535
 20
469.088
 10
189.523
 20
469.177
 10
189.513
 20
469.268
 10
189.504
 20
469.36
 10
189.498
 20
469.453
 10
189.493
 20
469.547
 10
189.49
 20
469.642
 10
189.49
 20
469.738
 10
189.49
 20
481.383
 10
192.594
 20
481.383
 10
189.49
 20
481.383
 10
187.215
 20
481.383
 10
189.49
 20
481.383
 10
189.49
 20
486.91
  0
LWPOLYLINE
  5
15
  8
LAYER2
 90
   234
 10
199.356
 20
488.39
 10
199.356
 20
478.278
 10
199.356
 20
478.278
 10
199.396
 20
478.367
 10
199.438
 20
478.454
 10
199.482
 20
478.541
 10
199.528
 20
478.626
 10
199.576
 20
478.71
 10
199.626
 20
478.793
 10
199.678
 20
478.875
 10
199.732
 20
478.955
 10
199.788
 20
479.034
 10
199.846
 20
479.113
 10
199.907
 20
479.19
 10
199.969
 20
479.265
 10
200.033
 20
479.34
 10
200.099
 20
479.413
 10
200.168
 20
479.486
 10
200.238
 20
479.557
 10
200.31
 20
479.627
 10
200.385
 20
479.696
 10
200.461
 20
479.763
 10
200.54
 20
479.83
 10
200.621
 20
479.895
 10
200.703
 20
479.959
 10
200.788
 20
480.022
 10
200.875
 20
480.083
 10
200.963
 20
480.144
 10
201.054
 20
480.203
 10
201.147
 20
480.262
 10
201.242
 20
480.319
 10
201.339
 20
480.374
 10
201.437
 20
480.429
 10
201.437
 20
480.429
 10
201.538
 20
480.482
 10
201.64
 20
480.534
 10
201.743
 20
480.583
 10
201.848
 20
480.631
 10
201.954
 20
480.677
 10
202.061
 20
480.721
 10
202.169
 20
480.764
 10
202.279
 20
480.804
 10
202.39
 20
480.843
 10
202.502
 20
480.88
 10
202.616
 20
480.915
 10
202.848
 20
480.98
 10
203.084
 20
481.038
 10
203.326
 20
481.088
 10
203.573
 20
481.131
 10
203.825
 20
481.167
 10
204.083
 20
481.196
 10
204.346
 20
481.218
 10
204.614
 20
481.232
 10
204.887
 20
481.239
 10
205.026
 20
481.24
 10
205.176
 20
481.24
 10
205.176
 20
481.24
 10
205.352
 20
481.238
 10
205.525
 20
481.232
 10
205.695
 20
481.222
 10
205.861
 20
481.207
 10
206.025
 20
481.188
 10
206.185
 20
481.166
 10
206.342
 20
481.139
 10
206.496
 20
481.107
 10
206.647
 20
481.072
 10
206.795
 20
481.033
 10
206.939
 20
480.989
 10
207.081
 20
480.941
 10
207.219
 20
480.889
 10
207.354
 20
480.833
 10
207.421
 20
480.804
 10
207.486
 20
480.773
 10
207.486
 20
480.773
 10
207.615
 20
480.709
 10
207.741
 20
480.643
 10
207.863
 20
480.573
 10
207.982
 20
480.501
 10
208.098
 20
480.425
 10
208.211
 20
480.347
 10
208.32
 20
480.266
 10
208.426
 20
480.182
 10
208.529
 20
480.095
 10
208.629
 20
480.005
 10
208.725
 20
479.912
 10
208.818
 20
479.817
 10
208.908
 20
479.718
 10
208.994
 20
479.617
 10
209.078
 20
479.512
 10
209.078
 20
479.512
 10
209.158
 20
479.405
 10
209.235
 20
479.296
 10
209.31
 20
479.185
 10
209.382
 20
479.071
 10
209.45
 20
478.955
 10
209.516
 20
478.837
 10
209.579
 20
478.716
 10
209.639
 20
478.593
 10
209.696
 20
478.468
 10
209.75
 20
478.341
 10
209.801
 20
478.211
 10
209.85
 20
478.079
 10
209.895
 20
477.945
 10
209.938
 20
477.809
 10
209.977
 20
477.67
 10
209.977
 20
477.67
 10
210.032
 20
477.459
 10
210.08
 20
477.246
 10
210.123
 20
477.031
 10
210.161
 20
476.814
 10
210.192
 20
476.594
 10
210.218
 20
476.373
 10
210.243
 20
476.074
 10
210.259
 20
475.772
 10
210.264
 20
475.466
 10
210.264
 20
466.182
 10
210.264
 20
475.466
 10
210.264
 20
475.466
 10
210.259
 20
475.772
 10
210.243
 20
476.074
 10
210.225
 20
476.299
 10
210.201
 20
476.521
 10
210.172
 20
476.741
 10
210.136
 20
476.959
 10
210.095
 20
477.175
 10
210.049
 20
477.388
 10
209.996
 20
477.6
 10
209.977
 20
477.67
 10
209.977
 20
477.67
 10
209.938
 20
477.809
 10
209.895
 20
477.945
 10
209.85
 20
478.079
 10
209.801
 20
478.211
 10
209.75
 20
478.341
 10
209.696
 20
478.468
 10
209.639
 20
478.593
 10
209.579
 20
478.716
 10
209.516
 20
478.837
 10
209.45
 20
478.955
 10
209.382
 20
479.071
 10
209.31
 20
479.185
 10
209.235
 20
479.296
 10
209.158
 20
479.405
 10
209.078
 20
479.512
 10
209.078
 20
479.512
 10
208.994
 20
479.617
 10
208.908
 20
479.718
 10
208.818
 20
479.817
 10
208.725
 20
479.912
 10
208.629
 20
480.005
 10
208.529
 20
480.095
 10
208.426
 20
480.182
 10
208.32
 20
480.266
 10
208.211
 20
480.347
 10
208.098
 20
480.425
 10
207.982
 20
480.501
 10
207.863
 20
480.573
 10
207.741
 20
480.643
 10
207.615
 20
480.709
 10
207.486
 20
480.773
 10
207.486
 20
480.773
 10
207.421
 20
480.804
 10
207.287
 20
480.862
 10
207.15
 20
480.916
 10
207.01
 20
480.966
 10
206.867
 20
481.011
 10
206.721
 20
481.053
 10
206.572
 20
481.09
 10
206.419
 20
481.124
 10
206.264
 20
481.153
 10
206.105
 20
481.177
 10
205.943
 20
481.198
 10
205.778
 20
481.215
 10
205.61
 20
481.227
 10
205.439
 20
481.236
 10
205.265
 20
481.24
 10
205.176
 20
481.24
 10
205.026
 20
481.24
 10
205.026
 20
481.24
 10
204.75
 20
481.237
 10
204.479
 20
481.226
 10
204.214
 20
481.208
 10
203.954
 20
481.183
 10
203.699
 20
481.15
 10
203.449
 20
481.111
 10
203.204
 20
481.064
 10
202.965
 20
481.01
 10
202.731
 20
480.948
 10
202.616
 20
480.915
 10
202.502
 20
480.88
 10
202.39
 20
480.843
 10
202.279
 20
480.804
 10
202.169
 20
480.764
 10
202.061
 20
480.721
 10
201.954
 20
480.677
 10
201.848
 20
480.631
 10
201.743
 20
480.583
 10
201.64
 20
480.534
 10
201.538
 20
480.482
 10
201.437
 20
480.429
 10
201.437
 20
480.429
 10
201.339
 20
480.374
 10
201.242
 20
480.319
 10
201.147
 20
480.262
 10
201.054
 20
480.203
 10
200.963
 20
480.144
 10
200.875
 20
480.083
 10
200.788
 20
480.022
 10
200.703
 20
479.959
 10
200.621
 20
479.895
 10
200.54
 20
479.83
 10
200.461
 20
479.763
 10
200.385
 20
479.696
 10
200.31
 20
479.627
 10
200.238
 20
479.557
 10
200.168
 20
479.486
 10
200.099
 20
479.413
 10
200.033
 20
479.34
 10
199.969
 20
479.265
 10
199.907
 20
479.19
 10
199.846
 20
479.113
 10
199.788
 20
479.034
 10
199.732
 20
478.955
 10
199.678
 20
478.875
 10
199.626
 20
478.793
 10
199.576
 20
478.71
 10
199.528
 20
478.626
 10
199.482
 20
478.541
 10
199.438
 20
478.454
 10
199.396
 20
478.367
 10
199.356
 20
478.278
 10
199.356
 20
466.182
 10
199.356
 20
478.278
 10
199.356
 20
488.39
  0
LWPOLYLINE
  5
16
  8
LAYER2
 90
   217
 10
227.295
 20
488.429
 10
227.295
 20
478.28
 10
227.295
 20
478.28
 10
227.342
 20
478.36
 10
227.39
 20
478.439
 10
227.44
 20
478.516
 10
227.491
 20
478.593
 10
227.545
 20
478.669
 10
227.599
 20
478.744
 10
227.655
 20
478.818
 10
227.713
 20
478.891
 10
227.773
 20
478.964
 10
227.834
 20
479.035
 10
227.897
 20
479.105
 10
227.961
 20
479.175
 10
228.027
 20
479.244
 10
228.095
 20
479.311
 10
228.164
 20
479.378
 10
228.234
 20
479.444
 10
228.307
 20
479.509
 10
228.381
 20
479.573
 10
228.534
 20
479.699
 10
228.693
 20
479.821
 10
228.858
 20
479.939
 10
229.03
 20
480.054
 10
229.209
 20
480.165
 10
229.394
 20
480.273
 10
229.394
 20
480.273
 10
229.605
 20
480.393
 10
229.816
 20
480.504
 10
230.026
 20
480.607
 10
230.235
 20
480.7
 10
230.392
 20
480.764
 10
230.548
 20
480.823
 10
230.704
 20
480.878
 10
230.86
 20
480.927
 10
230.963
 20
480.957
 10
230.963
 20
480.957
 10
231.271
 20
481.037
 10
231.576
 20
481.106
 10
231.826
 20
481.155
 10
232.073
 20
481.195
 10
232.317
 20
481.228
 10
232.462
 20
481.243
 10
233.256
 20
481.243
 10
233.256
 20
481.243
 10
233.443
 20
481.24
 10
233.63
 20
481.231
 10
233.815
 20
481.216
 10
233.998
 20
481.195
 10
234.179
 20
481.167
 10
234.359
 20
481.134
 10
234.538
 20
481.094
 10
234.714
 20
481.049
 10
234.89
 20
480.997
 10
235.063
 20
480.939
 10
235.063
 20
480.939
 10
235.178
 20
480.897
 10
235.29
 20
480.853
 10
235.4
 20
480.806
 10
235.509
 20
480.757
 10
235.616
 20
480.706
 10
235.721
 20
480.652
 10
235.824
 20
480.595
 10
235.925
 20
480.537
 10
236.024
 20
480.475
 10
236.121
 20
480.412
 10
236.217
 20
480.346
 10
236.311
 20
480.277
 10
236.402
 20
480.206
 10
236.492
 20
480.133
 10
236.58
 20
480.057
 10
236.58
 20
480.057
 10
236.666
 20
479.979
 10
236.749
 20
479.899
 10
236.83
 20
479.817
 10
236.909
 20
479.732
 10
236.985
 20
479.646
 10
237.058
 20
479.557
 10
237.13
 20
479.466
 10
237.198
 20
479.373
 10
237.265
 20
479.278
 10
237.329
 20
479.181
 10
237.39
 20
479.082
 10
237.449
 20
478.981
 10
237.506
 20
478.877
 10
237.56
 20
478.772
 10
237.612
 20
478.664
 10
237.612
 20
478.664
 10
237.661
 20
478.554
 10
237.706
 20
478.443
 10
237.748
 20
478.33
 10
237.787
 20
478.215
 10
237.823
 20
478.099
 10
237.855
 20
477.981
 10
237.883
 20
477.861
 10
237.909
 20
477.74
 10
237.93
 20
477.617
 10
237.949
 20
477.492
 10
237.964
 20
477.366
 10
237.976
 20
477.238
 10
237.984
 20
477.108
 10
237.989
 20
476.976
 10
237.991
 20
476.843
 10
237.991
 20
470.626
 10
237.991
 20
470.626
 10
237.989
 20
470.497
 10
237.984
 20
470.369
 10
237.976
 20
470.242
 10
237.964
 20
470.117
 10
237.949
 20
469.993
 10
237.93
 20
469.871
 10
237.909
 20
469.75
 10
237.883
 20
469.63
 10
237.855
 20
469.513
 10
237.823
 20
469.396
 10
237.787
 20
469.281
 10
237.748
 20
469.168
 10
237.706
 20
469.056
 10
237.661
 20
468.946
 10
237.612
 20
468.837
 10
237.612
 20
468.837
 10
237.56
 20
468.73
 10
237.506
 20
468.624
 10
237.449
 20
468.521
 10
237.39
 20
468.421
 10
237.329
 20
468.322
 10
237.265
 20
468.225
 10
237.198
 20
468.13
 10
237.13
 20
468.038
 10
237.058
 20
467.947
 10
236.985
 20
467.859
 10
236.909
 20
467.772
 10
236.83
 20
467.688
 10
236.749
 20
467.606
 10
236.666
 20
467.526
 10
236.58
 20
467.448
 10
236.58
 20
467.448
 10
236.492
 20
467.372
 10
236.402
 20
467.298
 10
236.311
 20
467.227
 10
236.217
 20
467.158
 10
236.121
 20
467.091
 10
236.024
 20
467.026
 10
235.925
 20
466.964
 10
235.824
 20
466.903
 10
235.721
 20
466.845
 10
235.616
 20
466.79
 10
235.509
 20
466.736
 10
235.4
 20
466.685
 10
235.234
 20
466.612
 10
235.063
 20
466.544
 10
235.063
 20
466.544
 10
234.948
 20
466.502
 10
234.831
 20
466.463
 10
234.714
 20
466.427
 10
234.597
 20
466.393
 10
234.478
 20
466.363
 10
234.359
 20
466.335
 10
234.239
 20
466.311
 10
234.119
 20
466.289
 10
233.998
 20
466.27
 10
233.876
 20
466.254
 10
233.753
 20
466.241
 10
233.63
 20
466.231
 10
233.506
 20
466.224
 10
233.381
 20
466.219
 10
233.256
 20
466.218
 10
232.462
 20
466.218
 10
232.462
 20
466.218
 10
232.304
 20
466.22
 10
232.145
 20
466.228
 10
231.986
 20
466.241
 10
231.827
 20
466.259
 10
231.669
 20
466.282
 10
231.51
 20
466.31
 10
231.351
 20
466.343
 10
231.192
 20
466.381
 10
231.034
 20
466.425
 10
230.875
 20
466.473
 10
230.875
 20
466.473
 10
230.665
 20
466.544
 10
230.458
 20
466.621
 10
230.254
 20
466.703
 10
230.054
 20
466.791
 10
229.856
 20
466.885
 10
229.662
 20
466.984
 10
229.471
 20
467.089
 10
229.376
 20
467.144
 10
229.376
 20
467.144
 10
229.191
 20
467.257
 10
229.012
 20
467.374
 10
228.838
 20
467.496
 10
228.67
 20
467.622
 10
228.508
 20
467.753
 10
228.391
 20
467.854
 10
228.276
 20
467.958
 10
228.165
 20
468.064
 10
228.129
 20
468.1
 10
228.129
 20
468.1
 10
228.023
 20
468.209
 10
227.922
 20
468.32
 10
227.826
 20
468.432
 10
227.735
 20
468.545
 10
227.649
 20
468.659
 10
227.595
 20
468.736
 10
227.542
 20
468.814
 10
227.492
 20
468.892
 10
227.445
 20
468.971
 10
227.399
 20
469.05
 10
227.356
 20
469.13
 10
227.315
 20
469.211
 10
227.295
 20
469.251
 10
227.295
 20
466.218
 10
227.295
 20
469.251
 10
227.295
 20
478.28
 10
227.295
 20
488.429
  0
LWPOLYLINE
  5
17
  8
LAYER2
 90
   212
 10
227.295
 20
478.284
 10
227.295
 20
469.255
 10
227.295
 20
469.255
 10
227.335
 20
469.174
 10
227.377
 20
469.094
 10
227.422
 20
469.014
 10
227.468
 20
468.935
 10
227.517
 20
468.856
 10
227.568
 20
468.779
 10
227.649
 20
468.663
 10
227.735
 20
468.548
 10
227.826
 20
468.435
 10
227.922
 20
468.324
 10
228.023
 20
468.213
 10
228.129
 20
468.104
 10
228.129
 20
468.104
 10
228.239
 20
467.997
 10
228.352
 20
467.892
 10
228.508
 20
467.757
 10
228.67
 20
467.626
 10
228.838
 20
467.499
 10
229.012
 20
467.378
 10
229.191
 20
467.26
 10
229.376
 20
467.147
 10
229.376
 20
467.147
 10
229.566
 20
467.04
 10
229.759
 20
466.938
 10
229.955
 20
466.841
 10
230.154
 20
466.75
 10
230.356
 20
466.665
 10
230.561
 20
466.586
 10
230.77
 20
466.512
 10
230.875
 20
466.477
 10
230.875
 20
466.477
 10
231.034
 20
466.429
 10
231.192
 20
466.385
 10
231.351
 20
466.347
 10
231.51
 20
466.313
 10
231.669
 20
466.285
 10
231.827
 20
466.262
 10
231.986
 20
466.244
 10
232.145
 20
466.232
 10
232.304
 20
466.224
 10
232.462
 20
466.221
 10
233.256
 20
466.221
 10
233.256
 20
466.221
 10
233.381
 20
466.223
 10
233.506
 20
466.227
 10
233.63
 20
466.234
 10
233.753
 20
466.245
 10
233.876
 20
466.258
 10
233.998
 20
466.274
 10
234.119
 20
466.292
 10
234.239
 20
466.314
 10
234.359
 20
466.339
 10
234.478
 20
466.366
 10
234.597
 20
466.397
 10
234.714
 20
466.43
 10
234.831
 20
466.467
 10
234.948
 20
466.506
 10
235.063
 20
466.548
 10
235.063
 20
466.548
 10
235.234
 20
466.616
 10
235.4
 20
466.688
 10
235.509
 20
466.74
 10
235.616
 20
466.793
 10
235.721
 20
466.849
 10
235.824
 20
466.907
 10
235.925
 20
466.967
 10
236.024
 20
467.03
 10
236.121
 20
467.094
 10
236.217
 20
467.161
 10
236.311
 20
467.231
 10
236.402
 20
467.302
 10
236.492
 20
467.376
 10
236.58
 20
467.451
 10
236.58
 20
467.451
 10
236.666
 20
467.529
 10
236.749
 20
467.61
 10
236.83
 20
467.692
 10
236.909
 20
467.776
 10
236.985
 20
467.862
 10
237.058
 20
467.951
 10
237.13
 20
468.041
 10
237.198
 20
468.134
 10
237.265
 20
468.229
 10
237.329
 20
468.325
 10
237.39
 20
468.424
 10
237.449
 20
468.525
 10
237.506
 20
468.628
 10
237.56
 20
468.733
 10
237.612
 20
468.84
 10
237.612
 20
468.84
 10
237.661
 20
468.949
 10
237.706
 20
469.06
 10
237.748
 20
469.172
 10
237.787
 20
469.285
 10
237.823
 20
469.4
 10
237.855
 20
469.516
 10
237.883
 20
469.634
 10
237.909
 20
469.753
 10
237.93
 20
469.874
 10
237.949
 20
469.996
 10
237.964
 20
470.12
 10
237.976
 20
470.245
 10
237.984
 20
470.372
 10
237.989
 20
470.5
 10
237.991
 20
470.63
 10
237.991
 20
476.847
 10
237.991
 20
476.847
 10
237.989
 20
476.98
 10
237.984
 20
477.112
 10
237.976
 20
477.241
 10
237.964
 20
477.369
 10
237.949
 20
477.496
 10
237.93
 20
477.621
 10
237.909
 20
477.744
 10
237.883
 20
477.865
 10
237.855
 20
477.985
 10
237.823
 20
478.103
 10
237.787
 20
478.219
 10
237.748
 20
478.334
 10
237.706
 20
478.447
 10
237.661
 20
478.558
 10
237.612
 20
478.668
 10
237.612
 20
478.668
 10
237.56
 20
478.775
 10
237.506
 20
478.881
 10
237.449
 20
478.984
 10
237.39
 20
479.086
 10
237.329
 20
479.185
 10
237.265
 20
479.282
 10
237.198
 20
479.377
 10
237.13
 20
479.47
 10
237.058
 20
479.561
 10
236.985
 20
479.649
 10
236.909
 20
479.736
 10
236.83
 20
479.82
 10
236.749
 20
479.903
 10
236.666
 20
479.983
 10
236.58
 20
480.061
 10
236.58
 20
480.061
 10
236.492
 20
480.137
 10
236.402
 20
480.21
 10
236.311
 20
480.281
 10
236.217
 20
480.349
 10
236.121
 20
480.415
 10
236.024
 20
480.479
 10
235.925
 20
480.54
 10
235.824
 20
480.599
 10
235.721
 20
480.655
 10
235.616
 20
480.709
 10
235.509
 20
480.761
 10
235.4
 20
480.81
 10
235.29
 20
480.857
 10
235.178
 20
480.901
 10
235.063
 20
480.943
 10
235.063
 20
480.943
 10
234.89
 20
481
 10
234.714
 20
481.052
 10
234.538
 20
481.098
 10
234.359
 20
481.137
 10
234.179
 20
481.171
 10
233.998
 20
481.198
 10
233.815
 20
481.22
 10
233.63
 20
481.235
 10
233.443
 20
481.244
 10
233.256
 20
481.247
 10
232.462
 20
481.247
 10
232.462
 20
481.247
 10
232.22
 20
481.219
 10
231.974
 20
481.184
 10
231.726
 20
481.14
 10
231.424
 20
481.077
 10
231.118
 20
481.002
 10
230.963
 20
480.96
 10
230.963
 20
480.96
 10
230.808
 20
480.915
 10
230.652
 20
480.864
 10
230.496
 20
480.808
 10
230.34
 20
480.747
 10
230.183
 20
480.681
 10
229.973
 20
480.586
 10
229.763
 20
480.481
 10
229.552
 20
480.368
 10
229.394
 20
480.277
 10
229.394
 20
480.277
 10
229.209
 20
480.169
 10
229.03
 20
480.058
 10
228.858
 20
479.943
 10
228.693
 20
479.825
 10
228.534
 20
479.703
 10
228.381
 20
479.577
 10
228.307
 20
479.513
 10
228.234
 20
479.448
 10
228.164
 20
479.382
 10
228.095
 20
479.315
 10
228.027
 20
479.247
 10
227.961
 20
479.179
 10
227.897
 20
479.109
 10
227.834
 20
479.039
 10
227.773
 20
478.967
 10
227.713
 20
478.895
 10
227.655
 20
478.822
 10
227.599
 20
478.748
 10
227.545
 20
478.673
 10
227.491
 20
478.597
 10
227.44
 20
478.52
 10
227.39
 20
478.442
 10
227.342
 20
478.364
 10
227.295
 20
478.284
 10
227.295
 20
478.284
  0
LWPOLYLINE
  5
18
  8
LAYER2
 90
   101
 10
244.087
 20
481.377
 10
250.224
 20
466.237
 10
255.576
 20
481.377
 10
250.224
 20
466.237
 10
248.425
 20
461.115
 10
248.425
 20
461.115
 10
248.365
 20
461
 10
248.302
 20
460.888
 10
248.236
 20
460.779
 10
248.167
 20
460.673
 10
248.096
 20
460.57
 10
248.021
 20
460.47
 10
247.944
 20
460.373
 10
247.864
 20
460.279
 10
247.782
 20
460.188
 10
247.696
 20
460.099
 10
247.608
 20
460.014
 10
247.516
 20
459.932
 10
247.422
 20
459.853
 10
247.326
 20
459.777
 10
247.226
 20
459.704
 10
247.226
 20
459.704
 10
247.175
 20
459.668
 10
247.124
 20
459.634
 10
247.072
 20
459.601
 10
247.021
 20
459.569
 10
246.968
 20
459.538
 10
246.915
 20
459.509
 10
246.862
 20
459.48
 10
246.809
 20
459.453
 10
246.755
 20
459.426
 10
246.701
 20
459.401
 10
246.646
 20
459.377
 10
246.591
 20
459.354
 10
246.536
 20
459.332
 10
246.48
 20
459.311
 10
246.423
 20
459.291
 10
246.367
 20
459.273
 10
246.31
 20
459.255
 10
246.252
 20
459.239
 10
246.194
 20
459.224
 10
246.136
 20
459.21
 10
246.078
 20
459.197
 10
246.019
 20
459.185
 10
245.959
 20
459.174
 10
245.9
 20
459.165
 10
245.839
 20
459.156
 10
245.779
 20
459.149
 10
245.718
 20
459.143
 10
245.656
 20
459.137
 10
245.595
 20
459.133
 10
245.533
 20
459.131
 10
245.533
 20
459.131
 10
245.595
 20
459.133
 10
245.656
 20
459.137
 10
245.718
 20
459.143
 10
245.779
 20
459.149
 10
245.839
 20
459.156
 10
245.9
 20
459.165
 10
245.959
 20
459.174
 10
246.019
 20
459.185
 10
246.078
 20
459.197
 10
246.136
 20
459.21
 10
246.194
 20
459.224
 10
246.252
 20
459.239
 10
246.31
 20
459.255
 10
246.367
 20
459.273
 10
246.423
 20
459.291
 10
246.48
 20
459.311
 10
246.536
 20
459.332
 10
246.591
 20
459.354
 10
246.646
 20
459.377
 10
246.701
 20
459.401
 10
246.755
 20
459.426
 10
246.809
 20
459.453
 10
246.862
 20
459.48
 10
246.915
 20
459.509
 10
246.968
 20
459.538
 10
247.021
 20
459.569
 10
247.072
 20
459.601
 10
247.124
 20
459.634
 10
247.175
 20
459.668
 10
247.226
 20
459.704
 10
247.226
 20
459.704
 10
247.326
 20
459.777
 10
247.422
 20
459.853
 10
247.516
 20
459.932
 10
247.608
 20
460.014
 10
247.696
 20
460.099
 10
247.782
 20
460.188
 10
247.864
 20
460.279
 10
247.944
 20
460.373
 10
248.021
 20
460.47
 10
248.096
 20
460.57
 10
248.167
 20
460.673
 10
248.236
 20
460.779
 10
248.302
 20
460.888
 10
248.365
 20
461
 10
248.425
 20
461.115
 10
250.224
 20
466.237
 10
244.087
 20
481.377
  0
LWPOLYLINE
  5
19
  8
LAYER2
 90
   336
 10
279.582
 20
479.966
 10
279.582
 20
479.966
 10
279.359
 20
480.115
 10
279.13
 20
480.256
 10
278.896
 20
480.39
 10
278.657
 20
480.516
 10
278.413
 20
480.635
 10
278.163
 20
480.747
 10
277.908
 20
480.85
 10
277.779
 20
480.899
 10
277.779
 20
480.899
 10
277.584
 20
480.968
 10
277.389
 20
481.029
 10
277.194
 20
481.083
 10
277.064
 20
481.116
 10
276.934
 20
481.144
 10
276.804
 20
481.17
 10
276.673
 20
481.193
 10
276.543
 20
481.212
 10
276.413
 20
481.228
 10
276.283
 20
481.241
 10
276.152
 20
481.25
 10
276.022
 20
481.257
 10
275.891
 20
481.26
 10
275.826
 20
481.26
 10
275.288
 20
481.26
 10
275.288
 20
481.26
 10
275.101
 20
481.258
 10
274.917
 20
481.25
 10
274.735
 20
481.237
 10
274.556
 20
481.219
 10
274.38
 20
481.196
 10
274.206
 20
481.168
 10
274.035
 20
481.135
 10
273.866
 20
481.096
 10
273.7
 20
481.053
 10
273.536
 20
481.004
 10
273.375
 20
480.95
 10
273.217
 20
480.891
 10
273.061
 20
480.827
 10
272.908
 20
480.758
 10
272.758
 20
480.684
 10
272.758
 20
480.684
 10
272.61
 20
480.605
 10
272.465
 20
480.523
 10
272.323
 20
480.438
 10
272.185
 20
480.349
 10
272.049
 20
480.257
 10
271.917
 20
480.162
 10
271.787
 20
480.063
 10
271.661
 20
479.961
 10
271.538
 20
479.855
 10
271.417
 20
479.746
 10
271.3
 20
479.634
 10
271.186
 20
479.518
 10
271.075
 20
479.399
 10
270.967
 20
479.277
 10
270.862
 20
479.151
 10
270.862
 20
479.151
 10
270.76
 20
479.022
 10
270.662
 20
478.891
 10
270.567
 20
478.757
 10
270.475
 20
478.621
 10
270.387
 20
478.482
 10
270.302
 20
478.341
 10
270.22
 20
478.197
 10
270.142
 20
478.05
 10
270.067
 20
477.901
 10
269.996
 20
477.75
 10
269.928
 20
477.596
 10
269.863
 20
477.439
 10
269.802
 20
477.28
 10
269.716
 20
477.036
 10
269.689
 20
476.954
 10
269.689
 20
476.954
 10
269.614
 20
476.704
 10
269.546
 20
476.453
 10
269.487
 20
476.2
 10
269.435
 20
475.945
 10
269.391
 20
475.688
 10
269.356
 20
475.429
 10
269.328
 20
475.168
 10
269.308
 20
474.905
 10
269.296
 20
474.64
 10
269.292
 20
474.373
 10
269.292
 20
473.396
 10
269.292
 20
473.396
 10
269.296
 20
473.095
 10
269.308
 20
472.798
 10
269.328
 20
472.505
 10
269.356
 20
472.215
 10
269.391
 20
471.93
 10
269.435
 20
471.649
 10
269.487
 20
471.372
 10
269.546
 20
471.099
 10
269.614
 20
470.829
 10
269.689
 20
470.564
 10
269.689
 20
470.564
 10
269.772
 20
470.304
 10
269.832
 20
470.135
 10
269.895
 20
469.968
 10
269.961
 20
469.805
 10
270.031
 20
469.645
 10
270.104
 20
469.488
 10
270.181
 20
469.333
 10
270.261
 20
469.182
 10
270.344
 20
469.034
 10
270.43
 20
468.889
 10
270.52
 20
468.747
 10
270.614
 20
468.608
 10
270.71
 20
468.472
 10
270.81
 20
468.339
 10
270.862
 20
468.274
 10
270.862
 20
468.274
 10
270.967
 20
468.146
 10
271.075
 20
468.022
 10
271.186
 20
467.901
 10
271.3
 20
467.784
 10
271.417
 20
467.671
 10
271.538
 20
467.562
 10
271.661
 20
467.456
 10
271.787
 20
467.354
 10
271.917
 20
467.255
 10
272.049
 20
467.16
 10
272.185
 20
467.069
 10
272.323
 20
466.982
 10
272.465
 20
466.898
 10
272.61
 20
466.818
 10
272.758
 20
466.742
 10
272.758
 20
466.742
 10
272.908
 20
466.67
 10
273.061
 20
466.602
 10
273.217
 20
466.54
 10
273.375
 20
466.483
 10
273.536
 20
466.431
 10
273.7
 20
466.384
 10
273.866
 20
466.342
 10
274.035
 20
466.304
 10
274.206
 20
466.272
 10
274.38
 20
466.245
 10
274.556
 20
466.222
 10
274.735
 20
466.205
 10
274.917
 20
466.192
 10
275.101
 20
466.185
 10
275.288
 20
466.182
 10
275.826
 20
466.182
 10
275.826
 20
466.182
 10
276.022
 20
466.185
 10
276.217
 20
466.193
 10
276.413
 20
466.207
 10
276.608
 20
466.226
 10
276.804
 20
466.251
 10
276.999
 20
466.281
 10
277.194
 20
466.316
 10
277.389
 20
466.357
 10
277.584
 20
466.404
 10
277.779
 20
466.456
 10
277.779
 20
466.456
 10
278.036
 20
466.532
 10
278.226
 20
466.595
 10
278.413
 20
466.663
 10
278.596
 20
466.735
 10
278.777
 20
466.812
 10
278.955
 20
466.893
 10
279.13
 20
466.979
 10
279.302
 20
467.07
 10
279.471
 20
467.165
 10
279.582
 20
467.231
 10
279.582
 20
467.231
 10
279.415
 20
467.133
 10
279.245
 20
467.039
 10
279.072
 20
466.95
 10
278.896
 20
466.866
 10
278.717
 20
466.786
 10
278.535
 20
466.711
 10
278.351
 20
466.64
 10
278.163
 20
466.574
 10
277.908
 20
466.493
 10
277.779
 20
466.456
 10
277.779
 20
466.456
 10
277.584
 20
466.404
 10
277.389
 20
466.357
 10
277.194
 20
466.316
 10
276.999
 20
466.281
 10
276.804
 20
466.251
 10
276.608
 20
466.226
 10
276.413
 20
466.207
 10
276.217
 20
466.193
 10
276.022
 20
466.185
 10
275.826
 20
466.182
 10
275.288
 20
466.182
 10
275.288
 20
466.182
 10
275.101
 20
466.185
 10
274.917
 20
466.192
 10
274.735
 20
466.205
 10
274.556
 20
466.222
 10
274.38
 20
466.245
 10
274.206
 20
466.272
 10
274.035
 20
466.304
 10
273.866
 20
466.342
 10
273.7
 20
466.384
 10
273.536
 20
466.431
 10
273.375
 20
466.483
 10
273.217
 20
466.54
 10
273.061
 20
466.602
 10
272.908
 20
466.67
 10
272.758
 20
466.742
 10
272.758
 20
466.742
 10
272.61
 20
466.818
 10
272.465
 20
466.898
 10
272.323
 20
466.982
 10
272.185
 20
467.069
 10
272.049
 20
467.16
 10
271.917
 20
467.255
 10
271.787
 20
467.354
 10
271.661
 20
467.456
 10
271.538
 20
467.562
 10
271.417
 20
467.671
 10
271.3
 20
467.784
 10
271.186
 20
467.901
 10
271.075
 20
468.022
 10
270.967
 20
468.146
 10
270.862
 20
468.274
 10
270.862
 20
468.274
 10
270.76
 20
468.406
 10
270.662
 20
468.54
 10
270.567
 20
468.677
 10
270.475
 20
468.818
 10
270.387
 20
468.961
 10
270.302
 20
469.108
 10
270.22
 20
469.257
 10
270.142
 20
469.41
 10
270.067
 20
469.566
 10
269.996
 20
469.725
 10
269.928
 20
469.886
 10
269.863
 20
470.051
 10
269.802
 20
470.219
 10
269.716
 20
470.477
 10
269.689
 20
470.564
 10
269.689
 20
470.564
 10
269.614
 20
470.829
 10
269.546
 20
471.099
 10
269.487
 20
471.372
 10
269.435
 20
471.649
 10
269.391
 20
471.93
 10
269.356
 20
472.215
 10
269.328
 20
472.505
 10
269.308
 20
472.798
 10
269.296
 20
473.095
 10
269.292
 20
473.396
 10
269.292
 20
474.373
 10
269.292
 20
474.373
 10
269.296
 20
474.64
 10
269.308
 20
474.905
 10
269.328
 20
475.168
 10
269.356
 20
475.429
 10
269.391
 20
475.688
 10
269.435
 20
475.945
 10
269.487
 20
476.2
 10
269.546
 20
476.453
 10
269.614
 20
476.704
 10
269.689
 20
476.954
 10
269.689
 20
476.954
 10
269.772
 20
477.199
 10
269.832
 20
477.36
 10
269.895
 20
477.518
 10
269.961
 20
477.673
 10
270.031
 20
477.826
 10
270.104
 20
477.976
 10
270.181
 20
478.124
 10
270.261
 20
478.269
 10
270.344
 20
478.412
 10
270.43
 20
478.552
 10
270.52
 20
478.689
 10
270.614
 20
478.824
 10
270.71
 20
478.957
 10
270.81
 20
479.087
 10
270.862
 20
479.151
 10
270.862
 20
479.151
 10
270.967
 20
479.277
 10
271.075
 20
479.399
 10
271.186
 20
479.518
 10
271.3
 20
479.634
 10
271.417
 20
479.746
 10
271.538
 20
479.855
 10
271.661
 20
479.961
 10
271.787
 20
480.063
 10
271.917
 20
480.162
 10
272.049
 20
480.257
 10
272.185
 20
480.349
 10
272.323
 20
480.438
 10
272.465
 20
480.523
 10
272.61
 20
480.605
 10
272.758
 20
480.684
 10
272.758
 20
480.684
 10
272.908
 20
480.758
 10
273.061
 20
480.827
 10
273.217
 20
480.891
 10
273.375
 20
480.95
 10
273.536
 20
481.004
 10
273.7
 20
481.053
 10
273.866
 20
481.096
 10
274.035
 20
481.135
 10
274.206
 20
481.168
 10
274.38
 20
481.196
 10
274.556
 20
481.219
 10
274.735
 20
481.237
 10
274.917
 20
481.25
 10
275.101
 20
481.258
 10
275.288
 20
481.26
 10
275.826
 20
481.26
 10
275.826
 20
481.26
 10
275.956
 20
481.259
 10
276.087
 20
481.254
 10
276.217
 20
481.246
 10
276.348
 20
481.235
 10
276.478
 20
481.22
 10
276.608
 20
481.203
 10
276.739
 20
481.182
 10
276.869
 20
481.158
 10
276.999
 20
481.13
 10
277.129
 20
481.1
 10
277.324
 20
481.048
 10
277.519
 20
480.989
 10
277.714
 20
480.923
 10
277.779
 20
480.899
 10
277.779
 20
480.899
 10
278.036
 20
480.799
 10
278.288
 20
480.692
 10
278.535
 20
480.577
 10
278.777
 20
480.454
 10
279.014
 20
480.324
 10
279.245
 20
480.186
 10
279.471
 20
480.041
 10
279.582
 20
479.966
 10
279.582
 20
479.966
  0
LWPOLYLINE
  5
1a
  8
LAYER2
 90
    11
 10
287.069
 20
488.546
 10
287.069
 20
472.495
 10
287.069
 20
466.221
 10
287.069
 20
472.495
 10
293.497
 20
480.14
 10
301.988
 20
466.221
 10
293.497
 20
480.14
 10
300.612
 20
488.546
 10
293.497
 20
480.169
 10
287.069
 20
472.551
 10
287.069
 20
488.546
  0
LWPOLYLINE
  5
1b
  8
LAYER2
 90
   357
 10
333.965
 20
465.793
 10
330.711
 20
469.735
 10
320.562
 20
481.938
 10
320.562
 20
481.938
 10
320.497
 20
482.021
 10
320.433
 20
482.105
 10
320.373
 20
482.191
 10
320.315
 20
482.278
 10
320.259
 20
482.367
 10
320.206
 20
482.457
 10
320.156
 20
482.549
 10
320.108
 20
482.642
 10
320.062
 20
482.736
 10
320.02
 20
482.831
 10
319.979
 20
482.929
 10
319.942
 20
483.027
 10
319.906
 20
483.127
 10
319.874
 20
483.228
 10
319.844
 20
483.331
 10
319.844
 20
483.331
 10
319.803
 20
483.489
 10
319.766
 20
483.651
 10
319.734
 20
483.818
 10
319.706
 20
483.99
 10
319.682
 20
484.167
 10
319.657
 20
484.409
 10
319.64
 20
484.661
 10
319.63
 20
484.921
 10
319.628
 20
485.121
 10
319.628
 20
485.121
 10
319.629
 20
485.212
 10
319.633
 20
485.302
 10
319.639
 20
485.392
 10
319.648
 20
485.481
 10
319.66
 20
485.571
 10
319.674
 20
485.66
 10
319.69
 20
485.749
 10
319.709
 20
485.838
 10
319.731
 20
485.926
 10
319.755
 20
486.015
 10
319.782
 20
486.103
 10
319.811
 20
486.19
 10
319.843
 20
486.278
 10
319.877
 20
486.365
 10
319.914
 20
486.453
 10
319.914
 20
486.453
 10
319.953
 20
486.539
 10
319.994
 20
486.624
 10
320.037
 20
486.707
 10
320.082
 20
486.789
 10
320.128
 20
486.869
 10
320.176
 20
486.948
 10
320.226
 20
487.025
 10
320.278
 20
487.101
 10
320.331
 20
487.175
 10
320.386
 20
487.248
 10
320.444
 20
487.32
 10
320.503
 20
487.389
 10
320.563
 20
487.458
 10
320.626
 20
487.525
 10
320.69
 20
487.59
 10
320.69
 20
487.59
 10
320.756
 20
487.654
 10
320.824
 20
487.716
 10
320.892
 20
487.776
 10
320.963
 20
487.835
 10
321.034
 20
487.892
 10
321.107
 20
487.947
 10
321.182
 20
488
 10
321.257
 20
488.052
 10
321.335
 20
488.102
 10
321.413
 20
488.15
 10
321.493
 20
488.197
 10
321.575
 20
488.242
 10
321.658
 20
488.285
 10
321.785
 20
488.346
 10
321.828
 20
488.366
 10
321.828
 20
488.366
 10
321.914
 20
488.403
 10
322.002
 20
488.438
 10
322.09
 20
488.471
 10
322.179
 20
488.5
 10
322.268
 20
488.528
 10
322.358
 20
488.552
 10
322.449
 20
488.574
 10
322.54
 20
488.594
 10
322.632
 20
488.61
 10
322.725
 20
488.625
 10
322.819
 20
488.636
 10
322.913
 20
488.645
 10
323.007
 20
488.652
 10
323.103
 20
488.656
 10
323.199
 20
488.657
 10
324.248
 20
488.657
 10
324.248
 20
488.657
 10
324.355
 20
488.656
 10
324.461
 20
488.652
 10
324.565
 20
488.647
 10
324.668
 20
488.639
 10
324.769
 20
488.629
 10
324.869
 20
488.617
 10
324.967
 20
488.603
 10
325.064
 20
488.586
 10
325.159
 20
488.568
 10
325.252
 20
488.547
 10
325.344
 20
488.524
 10
325.434
 20
488.498
 10
325.523
 20
488.471
 10
325.61
 20
488.441
 10
325.695
 20
488.409
 10
325.779
 20
488.375
 10
325.862
 20
488.338
 10
325.943
 20
488.3
 10
326.022
 20
488.259
 10
326.1
 20
488.216
 10
326.176
 20
488.171
 10
326.251
 20
488.123
 10
326.324
 20
488.074
 10
326.396
 20
488.022
 10
326.466
 20
487.968
 10
326.534
 20
487.912
 10
326.601
 20
487.853
 10
326.666
 20
487.793
 10
326.73
 20
487.73
 10
326.792
 20
487.665
 10
326.792
 20
487.665
 10
326.853
 20
487.598
 10
326.911
 20
487.528
 10
326.967
 20
487.457
 10
327.021
 20
487.383
 10
327.074
 20
487.307
 10
327.124
 20
487.23
 10
327.172
 20
487.149
 10
327.218
 20
487.067
 10
327.262
 20
486.983
 10
327.304
 20
486.896
 10
327.344
 20
486.808
 10
327.382
 20
486.717
 10
327.418
 20
486.624
 10
327.451
 20
486.529
 10
327.483
 20
486.432
 10
327.513
 20
486.332
 10
327.541
 20
486.231
 10
327.566
 20
486.127
 10
327.59
 20
486.021
 10
327.611
 20
485.913
 10
327.631
 20
485.803
 10
327.648
 20
485.691
 10
327.663
 20
485.577
 10
327.677
 20
485.46
 10
327.688
 20
485.341
 10
327.697
 20
485.221
 10
327.709
 20
484.972
 10
327.714
 20
484.716
 10
327.714
 20
484.716
 10
327.711
 20
484.554
 10
327.707
 20
484.475
 10
327.702
 20
484.396
 10
327.696
 20
484.319
 10
327.688
 20
484.242
 10
327.679
 20
484.166
 10
327.669
 20
484.092
 10
327.657
 20
484.018
 10
327.643
 20
483.945
 10
327.629
 20
483.873
 10
327.613
 20
483.802
 10
327.595
 20
483.731
 10
327.576
 20
483.662
 10
327.556
 20
483.594
 10
327.534
 20
483.526
 10
327.511
 20
483.46
 10
327.487
 20
483.394
 10
327.461
 20
483.33
 10
327.433
 20
483.266
 10
327.405
 20
483.203
 10
327.375
 20
483.141
 10
327.343
 20
483.08
 10
327.31
 20
483.02
 10
327.276
 20
482.961
 10
327.24
 20
482.903
 10
327.203
 20
482.845
 10
327.164
 20
482.789
 10
327.125
 20
482.733
 10
327.083
 20
482.679
 10
327.083
 20
482.679
 10
326.873
 20
482.418
 10
326.706
 20
482.223
 10
326.539
 20
482.039
 10
326.373
 20
481.868
 10
326.248
 20
481.748
 10
326.124
 20
481.634
 10
326
 20
481.528
 10
325.877
 20
481.428
 10
325.836
 20
481.396
 10
325.836
 20
481.396
 10
325.182
 20
480.917
 10
324.244
 20
480.276
 10
324.244
 20
480.276
 10
322.083
 20
478.909
 10
321.903
 20
478.799
 10
321.903
 20
478.799
 10
321.214
 20
478.366
 10
320.731
 20
478.042
 10
320.277
 20
477.72
 10
319.853
 20
477.4
 10
319.457
 20
477.082
 10
319.21
 20
476.87
 10
318.975
 20
476.659
 10
318.754
 20
476.449
 10
318.545
 20
476.24
 10
318.349
 20
476.031
 10
318.166
 20
475.823
 10
318.08
 20
475.719
 10
317.996
 20
475.616
 10
317.996
 20
475.616
 10
317.916
 20
475.518
 10
317.839
 20
475.418
 10
317.764
 20
475.316
 10
317.691
 20
475.211
 10
317.622
 20
475.104
 10
317.555
 20
474.995
 10
317.491
 20
474.883
 10
317.43
 20
474.768
 10
317.371
 20
474.652
 10
317.316
 20
474.532
 10
317.263
 20
474.411
 10
317.212
 20
474.287
 10
317.164
 20
474.161
 10
317.12
 20
474.032
 10
317.077
 20
473.901
 10
317.038
 20
473.768
 10
317.001
 20
473.632
 10
316.967
 20
473.493
 10
316.936
 20
473.353
 10
316.907
 20
473.21
 10
316.881
 20
473.064
 10
316.858
 20
472.917
 10
316.838
 20
472.766
 10
316.82
 20
472.614
 10
316.805
 20
472.459
 10
316.793
 20
472.301
 10
316.783
 20
472.142
 10
316.772
 20
471.815
 10
316.771
 20
471.648
 10
316.771
 20
471.648
 10
316.782
 20
471.464
 10
316.798
 20
471.282
 10
316.817
 20
471.104
 10
316.84
 20
470.928
 10
316.867
 20
470.755
 10
316.897
 20
470.586
 10
316.932
 20
470.419
 10
316.971
 20
470.255
 10
317.013
 20
470.094
 10
317.06
 20
469.935
 10
317.11
 20
469.78
 10
317.164
 20
469.628
 10
317.222
 20
469.478
 10
317.285
 20
469.332
 10
317.35
 20
469.188
 10
317.42
 20
469.047
 10
317.494
 20
468.909
 10
317.572
 20
468.774
 10
317.653
 20
468.642
 10
317.739
 20
468.513
 10
317.828
 20
468.387
 10
317.921
 20
468.263
 10
318.018
 20
468.143
 10
318.119
 20
468.025
 10
318.224
 20
467.91
 10
318.333
 20
467.798
 10
318.446
 20
467.69
 10
318.563
 20
467.584
 10
318.683
 20
467.48
 10
318.808
 20
467.38
 10
318.808
 20
467.38
 10
318.935
 20
467.283
 10
319.065
 20
467.189
 10
319.197
 20
467.099
 10
319.332
 20
467.012
 10
319.468
 20
466.928
 10
319.607
 20
466.847
 10
319.749
 20
466.77
 10
319.892
 20
466.695
 10
320.038
 20
466.625
 10
320.186
 20
466.557
 10
320.337
 20
466.493
 10
320.489
 20
466.432
 10
320.645
 20
466.374
 10
320.802
 20
466.32
 10
320.961
 20
466.269
 10
321.123
 20
466.221
 10
321.288
 20
466.177
 10
321.454
 20
466.136
 10
321.623
 20
466.098
 10
321.794
 20
466.063
 10
321.967
 20
466.032
 10
322.143
 20
466.004
 10
322.321
 20
465.979
 10
322.501
 20
465.958
 10
322.684
 20
465.94
 10
322.869
 20
465.925
 10
323.056
 20
465.914
 10
323.245
 20
465.905
 10
323.631
 20
465.899
 10
323.631
 20
465.899
 10
323.89
 20
465.909
 10
324.148
 20
465.928
 10
324.404
 20
465.956
 10
324.659
 20
465.992
 10
324.913
 20
466.038
 10
325.165
 20
466.092
 10
325.415
 20
466.154
 10
325.665
 20
466.226
 10
325.912
 20
466.306
 10
326.159
 20
466.395
 10
326.404
 20
466.492
 10
326.647
 20
466.599
 10
326.89
 20
466.714
 10
327.13
 20
466.838
 10
327.37
 20
466.97
 10
327.37
 20
466.97
 10
327.607
 20
467.11
 10
327.843
 20
467.257
 10
328.192
 20
467.488
 10
328.536
 20
467.734
 10
328.876
 20
467.994
 10
329.211
 20
468.268
 10
329.541
 20
468.556
 10
329.867
 20
468.859
 10
330.187
 20
469.175
 10
330.503
 20
469.506
 10
330.711
 20
469.735
 10
330.711
 20
469.735
 10
331.052
 20
470.114
 10
331.437
 20
470.573
 10
331.809
 20
471.047
 10
332.167
 20
471.538
 10
332.316
 20
471.754
 10
332.316
 20
471.754
 10
332.659
 20
472.276
 10
332.996
 20
472.829
 10
333.374
 20
473.501
 10
333.745
 20
474.214
 10
333.745
 20
474.214
 10
333.374
 20
473.501
 10
333.044
 20
472.911
 10
332.707
 20
472.353
 10
332.415
 20
471.9
 10
332.316
 20
471.754
 10
332.316
 20
471.754
 10
331.964
 20
471.256
 10
331.598
 20
470.774
 10
331.219
 20
470.309
 10
330.883
 20
469.923
 10
330.711
 20
469.735
 10
333.965
 20
465.793
  0
LWPOLYLINE
  5
1c
  8
LAYER2
 90
   332
 10
330.711
 20
469.702
 10
330.711
 20
469.702
 10
330.398
 20
469.361
 10
330.081
 20
469.035
 10
329.759
 20
468.723
 10
329.432
 20
468.425
 10
329.1
 20
468.142
 10
328.763
 20
467.873
 10
328.422
 20
467.617
 10
328.076
 20
467.377
 10
327.725
 20
467.15
 10
327.489
 20
467.007
 10
327.37
 20
466.937
 10
327.37
 20
466.937
 10
327.13
 20
466.805
 10
326.89
 20
466.681
 10
326.647
 20
466.566
 10
326.404
 20
466.459
 10
326.159
 20
466.362
 10
325.912
 20
466.273
 10
325.665
 20
466.193
 10
325.415
 20
466.121
 10
325.165
 20
466.059
 10
324.913
 20
466.005
 10
324.659
 20
465.959
 10
324.404
 20
465.923
 10
324.148
 20
465.895
 10
323.89
 20
465.876
 10
323.631
 20
465.866
 10
323.631
 20
465.866
 10
323.245
 20
465.872
 10
323.056
 20
465.881
 10
322.869
 20
465.892
 10
322.684
 20
465.907
 10
322.501
 20
465.925
 10
322.321
 20
465.947
 10
322.143
 20
465.971
 10
321.967
 20
465.999
 10
321.794
 20
466.031
 10
321.623
 20
466.065
 10
321.454
 20
466.103
 10
321.288
 20
466.144
 10
321.123
 20
466.189
 10
320.961
 20
466.236
 10
320.802
 20
466.287
 10
320.645
 20
466.342
 10
320.489
 20
466.399
 10
320.337
 20
466.46
 10
320.186
 20
466.524
 10
320.038
 20
466.592
 10
319.892
 20
466.663
 10
319.749
 20
466.737
 10
319.607
 20
466.814
 10
319.468
 20
466.895
 10
319.332
 20
466.979
 10
319.197
 20
467.066
 10
319.065
 20
467.156
 10
318.935
 20
467.25
 10
318.808
 20
467.347
 10
318.808
 20
467.347
 10
318.683
 20
467.448
 10
318.563
 20
467.551
 10
318.446
 20
467.657
 10
318.333
 20
467.766
 10
318.224
 20
467.877
 10
318.119
 20
467.992
 10
318.018
 20
468.11
 10
317.921
 20
468.23
 10
317.828
 20
468.354
 10
317.739
 20
468.48
 10
317.653
 20
468.609
 10
317.572
 20
468.741
 10
317.494
 20
468.876
 10
317.42
 20
469.014
 10
317.35
 20
469.155
 10
317.285
 20
469.299
 10
317.222
 20
469.445
 10
317.164
 20
469.595
 10
317.11
 20
469.747
 10
317.06
 20
469.903
 10
317.013
 20
470.061
 10
316.971
 20
470.222
 10
316.932
 20
470.386
 10
316.897
 20
470.553
 10
316.867
 20
470.723
 10
316.84
 20
470.895
 10
316.817
 20
471.071
 10
316.798
 20
471.249
 10
316.782
 20
471.431
 10
316.771
 20
471.615
 10
316.771
 20
471.615
 10
316.776
 20
471.947
 10
316.783
 20
472.109
 10
316.793
 20
472.269
 10
316.805
 20
472.426
 10
316.82
 20
472.581
 10
316.838
 20
472.733
 10
316.858
 20
472.884
 10
316.881
 20
473.032
 10
316.907
 20
473.177
 10
316.936
 20
473.32
 10
316.967
 20
473.461
 10
317.001
 20
473.599
 10
317.038
 20
473.735
 10
317.077
 20
473.868
 10
317.12
 20
473.999
 10
317.164
 20
474.128
 10
317.212
 20
474.254
 10
317.263
 20
474.378
 10
317.316
 20
474.5
 10
317.371
 20
474.619
 10
317.43
 20
474.735
 10
317.491
 20
474.85
 10
317.555
 20
474.962
 10
317.622
 20
475.071
 10
317.691
 20
475.178
 10
317.764
 20
475.283
 10
317.839
 20
475.385
 10
317.916
 20
475.485
 10
317.996
 20
475.583
 10
317.996
 20
475.583
 10
318.08
 20
475.687
 10
318.256
 20
475.894
 10
318.445
 20
476.103
 10
318.648
 20
476.312
 10
318.863
 20
476.521
 10
319.091
 20
476.732
 10
319.332
 20
476.943
 10
319.718
 20
477.261
 10
320.133
 20
477.581
 10
320.577
 20
477.902
 10
321.214
 20
478.333
 10
321.903
 20
478.766
 10
321.903
 20
478.766
 10
323.838
 20
479.977
 10
324.244
 20
480.243
 10
324.244
 20
480.243
 10
325.233
 20
480.921
 10
325.794
 20
481.331
 10
325.836
 20
481.363
 10
325.836
 20
481.363
 10
325.959
 20
481.461
 10
326.083
 20
481.565
 10
326.207
 20
481.676
 10
326.331
 20
481.795
 10
326.498
 20
481.963
 10
326.664
 20
482.143
 10
326.832
 20
482.335
 10
327.041
 20
482.592
 10
327.083
 20
482.646
 10
327.083
 20
482.646
 10
327.125
 20
482.701
 10
327.164
 20
482.756
 10
327.203
 20
482.812
 10
327.24
 20
482.87
 10
327.276
 20
482.928
 10
327.31
 20
482.987
 10
327.343
 20
483.047
 10
327.375
 20
483.108
 10
327.405
 20
483.17
 10
327.433
 20
483.233
 10
327.461
 20
483.297
 10
327.487
 20
483.361
 10
327.511
 20
483.427
 10
327.534
 20
483.493
 10
327.556
 20
483.561
 10
327.576
 20
483.629
 10
327.595
 20
483.699
 10
327.613
 20
483.769
 10
327.629
 20
483.84
 10
327.643
 20
483.912
 10
327.657
 20
483.985
 10
327.669
 20
484.059
 10
327.679
 20
484.134
 10
327.688
 20
484.209
 10
327.696
 20
484.286
 10
327.702
 20
484.363
 10
327.707
 20
484.442
 10
327.711
 20
484.521
 10
327.714
 20
484.683
 10
327.714
 20
484.683
 10
327.709
 20
484.94
 10
327.697
 20
485.188
 10
327.688
 20
485.308
 10
327.677
 20
485.427
 10
327.663
 20
485.544
 10
327.648
 20
485.658
 10
327.631
 20
485.77
 10
327.611
 20
485.88
 10
327.59
 20
485.988
 10
327.566
 20
486.094
 10
327.541
 20
486.198
 10
327.513
 20
486.299
 10
327.483
 20
486.399
 10
327.451
 20
486.496
 10
327.418
 20
486.591
 10
327.382
 20
486.684
 10
327.344
 20
486.775
 10
327.304
 20
486.863
 10
327.262
 20
486.95
 10
327.218
 20
487.034
 10
327.172
 20
487.117
 10
327.124
 20
487.197
 10
327.074
 20
487.275
 10
327.021
 20
487.35
 10
326.967
 20
487.424
 10
326.911
 20
487.496
 10
326.853
 20
487.565
 10
326.792
 20
487.632
 10
326.792
 20
487.632
 10
326.73
 20
487.697
 10
326.666
 20
487.76
 10
326.601
 20
487.821
 10
326.534
 20
487.879
 10
326.466
 20
487.935
 10
326.396
 20
487.989
 10
326.324
 20
488.041
 10
326.251
 20
488.091
 10
326.176
 20
488.138
 10
326.1
 20
488.183
 10
326.022
 20
488.226
 10
325.943
 20
488.267
 10
325.862
 20
488.306
 10
325.779
 20
488.342
 10
325.695
 20
488.376
 10
325.61
 20
488.408
 10
325.523
 20
488.438
 10
325.434
 20
488.465
 10
325.344
 20
488.491
 10
325.252
 20
488.514
 10
325.159
 20
488.535
 10
325.064
 20
488.553
 10
324.967
 20
488.57
 10
324.869
 20
488.584
 10
324.769
 20
488.596
 10
324.668
 20
488.606
 10
324.565
 20
488.614
 10
324.461
 20
488.62
 10
324.355
 20
488.623
 10
324.248
 20
488.624
 10
323.199
 20
488.624
 10
323.199
 20
488.624
 10
323.103
 20
488.623
 10
323.007
 20
488.619
 10
322.913
 20
488.612
 10
322.819
 20
488.603
 10
322.725
 20
488.592
 10
322.632
 20
488.577
 10
322.54
 20
488.561
 10
322.449
 20
488.541
 10
322.358
 20
488.519
 10
322.268
 20
488.495
 10
322.179
 20
488.468
 10
322.09
 20
488.438
 10
322.002
 20
488.405
 10
321.914
 20
488.371
 10
321.828
 20
488.333
 10
321.828
 20
488.333
 10
321.7
 20
488.273
 10
321.616
 20
488.231
 10
321.534
 20
488.187
 10
321.453
 20
488.141
 10
321.374
 20
488.094
 10
321.296
 20
488.044
 10
321.219
 20
487.994
 10
321.144
 20
487.941
 10
321.07
 20
487.887
 10
320.998
 20
487.831
 10
320.927
 20
487.773
 10
320.858
 20
487.713
 10
320.79
 20
487.652
 10
320.723
 20
487.589
 10
320.69
 20
487.557
 10
320.69
 20
487.557
 10
320.626
 20
487.492
 10
320.563
 20
487.425
 10
320.503
 20
487.357
 10
320.444
 20
487.287
 10
320.386
 20
487.215
 10
320.331
 20
487.142
 10
320.278
 20
487.068
 10
320.226
 20
486.992
 10
320.176
 20
486.915
 10
320.128
 20
486.836
 10
320.082
 20
486.756
 10
320.037
 20
486.674
 10
319.994
 20
486.591
 10
319.953
 20
486.506
 10
319.914
 20
486.42
 10
319.914
 20
486.42
 10
319.877
 20
486.333
 10
319.843
 20
486.245
 10
319.811
 20
486.158
 10
319.782
 20
486.07
 10
319.755
 20
485.982
 10
319.731
 20
485.893
 10
319.709
 20
485.805
 10
319.69
 20
485.716
 10
319.674
 20
485.627
 10
319.66
 20
485.538
 10
319.648
 20
485.448
 10
319.639
 20
485.359
 10
319.633
 20
485.269
 10
319.629
 20
485.179
 10
319.628
 20
485.088
 10
319.628
 20
485.088
 10
319.632
 20
484.822
 10
319.643
 20
484.564
 10
319.662
 20
484.315
 10
319.682
 20
484.134
 10
319.706
 20
483.957
 10
319.734
 20
483.785
 10
319.766
 20
483.618
 10
319.803
 20
483.456
 10
319.844
 20
483.298
 10
319.844
 20
483.298
 10
319.874
 20
483.195
 10
319.906
 20
483.094
 10
319.942
 20
482.994
 10
319.979
 20
482.896
 10
320.02
 20
482.799
 10
320.062
 20
482.703
 10
320.108
 20
482.609
 10
320.156
 20
482.516
 10
320.206
 20
482.424
 10
320.259
 20
482.334
 10
320.315
 20
482.246
 10
320.373
 20
482.158
 10
320.433
 20
482.073
 10
320.497
 20
481.988
 10
320.562
 20
481.905
 10
330.711
 20
469.702
  0
LWPOLYLINE
  5
1d
  8
LAYER2
 90
   123
 10
350.416
 20
466.221
 10
350.416
 20
476.485
 10
350.416
 20
488.433
 10
357.532
 20
488.433
 10
357.532
 20
488.433
 10
357.839
 20
488.429
 10
358.141
 20
488.416
 10
358.437
 20
488.394
 10
358.727
 20
488.364
 10
359.012
 20
488.325
 10
359.291
 20
488.277
 10
359.564
 20
488.221
 10
359.743
 20
488.179
 10
359.919
 20
488.133
 10
360.093
 20
488.083
 10
360.264
 20
488.029
 10
360.349
 20
488.001
 10
360.349
 20
488.001
 10
360.598
 20
487.911
 10
360.84
 20
487.815
 10
361.075
 20
487.712
 10
361.228
 20
487.64
 10
361.377
 20
487.565
 10
361.523
 20
487.487
 10
361.667
 20
487.407
 10
361.806
 20
487.323
 10
361.943
 20
487.236
 10
362.076
 20
487.147
 10
362.206
 20
487.054
 10
362.333
 20
486.959
 10
362.457
 20
486.861
 10
362.518
 20
486.811
 10
362.518
 20
486.811
 10
362.636
 20
486.708
 10
362.751
 20
486.603
 10
362.863
 20
486.495
 10
362.97
 20
486.384
 10
363.074
 20
486.271
 10
363.174
 20
486.154
 10
363.271
 20
486.035
 10
363.364
 20
485.914
 10
363.453
 20
485.789
 10
363.538
 20
485.662
 10
363.62
 20
485.532
 10
363.698
 20
485.4
 10
363.773
 20
485.264
 10
363.844
 20
485.126
 10
363.911
 20
484.985
 10
363.911
 20
484.985
 10
363.974
 20
484.842
 10
364.033
 20
484.697
 10
364.087
 20
484.551
 10
364.137
 20
484.402
 10
364.183
 20
484.252
 10
364.224
 20
484.101
 10
364.261
 20
483.947
 10
364.294
 20
483.792
 10
364.322
 20
483.635
 10
364.346
 20
483.476
 10
364.365
 20
483.316
 10
364.381
 20
483.154
 10
364.392
 20
482.99
 10
364.398
 20
482.825
 10
364.4
 20
482.658
 10
364.4
 20
482.119
 10
364.4
 20
482.119
 10
364.398
 20
481.951
 10
364.39
 20
481.782
 10
364.377
 20
481.615
 10
364.359
 20
481.448
 10
364.336
 20
481.282
 10
364.307
 20
481.117
 10
364.273
 20
480.952
 10
364.235
 20
480.788
 10
364.191
 20
480.625
 10
364.142
 20
480.462
 10
364.087
 20
480.3
 10
364.028
 20
480.139
 10
363.963
 20
479.979
 10
363.893
 20
479.819
 10
363.818
 20
479.66
 10
363.818
 20
479.66
 10
363.738
 20
479.503
 10
363.654
 20
479.349
 10
363.564
 20
479.199
 10
363.47
 20
479.053
 10
363.371
 20
478.91
 10
363.267
 20
478.771
 10
363.158
 20
478.635
 10
363.045
 20
478.503
 10
362.926
 20
478.374
 10
362.803
 20
478.249
 10
362.676
 20
478.127
 10
362.543
 20
478.009
 10
362.406
 20
477.894
 10
362.264
 20
477.783
 10
362.117
 20
477.675
 10
362.117
 20
477.675
 10
361.982
 20
477.581
 10
361.846
 20
477.491
 10
361.709
 20
477.406
 10
361.571
 20
477.325
 10
361.432
 20
477.248
 10
361.291
 20
477.176
 10
361.149
 20
477.107
 10
361.007
 20
477.044
 10
360.862
 20
476.984
 10
360.717
 20
476.929
 10
360.571
 20
476.878
 10
360.423
 20
476.832
 10
360.275
 20
476.79
 10
360.125
 20
476.752
 10
359.974
 20
476.719
 10
359.974
 20
476.719
 10
359.667
 20
476.661
 10
359.355
 20
476.611
 10
358.956
 20
476.56
 10
358.548
 20
476.523
 10
358.131
 20
476.498
 10
357.705
 20
476.486
 10
357.532
 20
476.485
 10
350.416
 20
476.485
 10
350.416
 20
466.221
  0
LWPOLYLINE
  5
1e
  8
LAYER2
 90
   121
 10
350.416
 20
476.482
 10
357.532
 20
476.482
 10
357.532
 20
476.482
 10
357.962
 20
476.488
 10
358.383
 20
476.508
 10
358.794
 20
476.54
 10
359.197
 20
476.585
 10
359.512
 20
476.631
 10
359.821
 20
476.685
 10
359.974
 20
476.715
 10
359.974
 20
476.715
 10
360.125
 20
476.749
 10
360.275
 20
476.786
 10
360.423
 20
476.828
 10
360.571
 20
476.875
 10
360.717
 20
476.926
 10
360.862
 20
476.981
 10
361.007
 20
477.04
 10
361.149
 20
477.104
 10
361.291
 20
477.172
 10
361.432
 20
477.244
 10
361.571
 20
477.321
 10
361.709
 20
477.402
 10
361.846
 20
477.488
 10
361.982
 20
477.578
 10
362.117
 20
477.672
 10
362.117
 20
477.672
 10
362.264
 20
477.779
 10
362.406
 20
477.89
 10
362.543
 20
478.005
 10
362.676
 20
478.123
 10
362.803
 20
478.245
 10
362.926
 20
478.37
 10
363.045
 20
478.499
 10
363.158
 20
478.631
 10
363.267
 20
478.767
 10
363.371
 20
478.906
 10
363.47
 20
479.049
 10
363.564
 20
479.196
 10
363.654
 20
479.346
 10
363.738
 20
479.499
 10
363.818
 20
479.656
 10
363.818
 20
479.656
 10
363.893
 20
479.815
 10
363.963
 20
479.975
 10
364.028
 20
480.135
 10
364.087
 20
480.297
 10
364.142
 20
480.458
 10
364.191
 20
480.621
 10
364.235
 20
480.784
 10
364.273
 20
480.948
 10
364.307
 20
481.113
 10
364.336
 20
481.278
 10
364.359
 20
481.444
 10
364.377
 20
481.611
 10
364.39
 20
481.779
 10
364.398
 20
481.947
 10
364.4
 20
482.116
 10
364.4
 20
482.654
 10
364.4
 20
482.654
 10
364.398
 20
482.821
 10
364.392
 20
482.987
 10
364.381
 20
483.15
 10
364.365
 20
483.312
 10
364.346
 20
483.473
 10
364.322
 20
483.631
 10
364.294
 20
483.788
 10
364.261
 20
483.944
 10
364.224
 20
484.097
 10
364.183
 20
484.249
 10
364.137
 20
484.399
 10
364.087
 20
484.547
 10
364.033
 20
484.694
 10
363.974
 20
484.838
 10
363.911
 20
484.981
 10
363.911
 20
484.981
 10
363.844
 20
485.122
 10
363.773
 20
485.26
 10
363.698
 20
485.396
 10
363.62
 20
485.529
 10
363.538
 20
485.658
 10
363.453
 20
485.786
 10
363.364
 20
485.91
 10
363.271
 20
486.032
 10
363.174
 20
486.151
 10
363.074
 20
486.267
 10
362.97
 20
486.38
 10
362.863
 20
486.491
 10
362.751
 20
486.599
 10
362.636
 20
486.704
 10
362.518
 20
486.807
 10
362.518
 20
486.807
 10
362.396
 20
486.907
 10
362.27
 20
487.003
 10
362.142
 20
487.097
 10
362.01
 20
487.188
 10
361.875
 20
487.276
 10
361.737
 20
487.361
 10
361.595
 20
487.444
 10
361.451
 20
487.523
 10
361.303
 20
487.6
 10
361.152
 20
487.673
 10
360.919
 20
487.778
 10
360.68
 20
487.876
 10
360.433
 20
487.968
 10
360.349
 20
487.997
 10
360.349
 20
487.997
 10
360.179
 20
488.053
 10
360.006
 20
488.105
 10
359.831
 20
488.153
 10
359.653
 20
488.197
 10
359.382
 20
488.256
 10
359.105
 20
488.306
 10
358.823
 20
488.348
 10
358.534
 20
488.381
 10
358.24
 20
488.406
 10
357.94
 20
488.422
 10
357.635
 20
488.429
 10
357.532
 20
488.429
 10
350.416
 20
488.429
 10
350.416
 20
476.482
  0
LWPOLYLINE
  5
1f
  8
LAYER2
 90
   825
 10
387.854
 20
483.07
 10
387.166
 20
480.98
 10
384.6
 20
472.992
 10
384.6
 20
472.992
 10
384.58
 20
472.928
 10
384.562
 20
472.864
 10
384.546
 20
472.8
 10
384.532
 20
472.736
 10
384.52
 20
472.672
 10
384.511
 20
472.608
 10
384.503
 20
472.543
 10
384.498
 20
472.478
 10
384.495
 20
472.413
 10
384.494
 20
472.348
 10
384.494
 20
472.348
 10
384.497
 20
472.256
 10
384.505
 20
472.166
 10
384.519
 20
472.08
 10
384.538
 20
471.997
 10
384.563
 20
471.917
 10
384.594
 20
471.84
 10
384.63
 20
471.766
 10
384.671
 20
471.696
 10
384.718
 20
471.628
 10
384.771
 20
471.564
 10
384.829
 20
471.503
 10
384.893
 20
471.445
 10
384.962
 20
471.39
 10
385.037
 20
471.338
 10
385.118
 20
471.29
 10
385.204
 20
471.244
 10
385.295
 20
471.202
 10
385.392
 20
471.163
 10
385.495
 20
471.127
 10
385.603
 20
471.094
 10
385.716
 20
471.064
 10
385.836
 20
471.037
 10
385.961
 20
471.014
 10
386.091
 20
470.993
 10
386.227
 20
470.976
 10
386.368
 20
470.962
 10
386.515
 20
470.951
 10
386.668
 20
470.943
 10
386.826
 20
470.939
 10
386.989
 20
470.937
 10
386.989
 20
470.937
 10
387.17
 20
470.968
 10
387.349
 20
471.004
 10
387.525
 20
471.045
 10
387.698
 20
471.092
 10
387.869
 20
471.143
 10
388.037
 20
471.2
 10
388.203
 20
471.262
 10
388.367
 20
471.33
 10
388.528
 20
471.402
 10
388.686
 20
471.48
 10
388.842
 20
471.563
 10
388.995
 20
471.651
 10
389.146
 20
471.744
 10
389.295
 20
471.843
 10
389.441
 20
471.947
 10
389.441
 20
471.947
 10
389.655
 20
472.11
 10
389.863
 20
472.28
 10
390.065
 20
472.456
 10
390.262
 20
472.64
 10
390.453
 20
472.83
 10
390.638
 20
473.027
 10
390.817
 20
473.23
 10
390.99
 20
473.441
 10
391.157
 20
473.658
 10
391.319
 20
473.882
 10
391.319
 20
473.882
 10
391.474
 20
474.112
 10
391.623
 20
474.347
 10
391.765
 20
474.586
 10
391.899
 20
474.83
 10
392.028
 20
475.078
 10
392.149
 20
475.331
 10
392.264
 20
475.589
 10
392.371
 20
475.852
 10
392.472
 20
476.119
 10
392.567
 20
476.391
 10
392.567
 20
476.391
 10
392.682
 20
476.757
 10
392.784
 20
477.125
 10
392.874
 20
477.494
 10
392.952
 20
477.865
 10
393.017
 20
478.237
 10
393.07
 20
478.61
 10
393.111
 20
478.985
 10
393.126
 20
479.173
 10
393.126
 20
479.173
 10
393.124
 20
479.429
 10
393.117
 20
479.681
 10
393.106
 20
479.93
 10
393.09
 20
480.176
 10
393.07
 20
480.418
 10
393.045
 20
480.657
 10
393.016
 20
480.893
 10
392.983
 20
481.125
 10
392.944
 20
481.354
 10
392.902
 20
481.579
 10
392.855
 20
481.801
 10
392.803
 20
482.02
 10
392.747
 20
482.235
 10
392.686
 20
482.447
 10
392.621
 20
482.656
 10
392.552
 20
482.861
 10
392.478
 20
483.063
 10
392.399
 20
483.261
 10
392.316
 20
483.456
 10
392.229
 20
483.648
 10
392.137
 20
483.836
 10
392.04
 20
484.021
 10
391.94
 20
484.203
 10
391.834
 20
484.381
 10
391.724
 20
484.556
 10
391.61
 20
484.727
 10
391.491
 20
484.895
 10
391.368
 20
485.06
 10
391.24
 20
485.221
 10
391.107
 20
485.379
 10
391.107
 20
485.379
 10
390.886
 20
485.621
 10
390.658
 20
485.855
 10
390.423
 20
486.081
 10
390.181
 20
486.3
 10
389.933
 20
486.511
 10
389.677
 20
486.714
 10
389.414
 20
486.91
 10
389.144
 20
487.097
 10
388.867
 20
487.277
 10
388.583
 20
487.45
 10
388.293
 20
487.614
 10
387.995
 20
487.771
 10
387.69
 20
487.92
 10
387.378
 20
488.062
 10
387.06
 20
488.195
 10
387.06
 20
488.195
 10
386.737
 20
488.321
 10
386.411
 20
488.438
 10
386.084
 20
488.546
 10
385.755
 20
488.646
 10
385.424
 20
488.737
 10
385.092
 20
488.819
 10
384.757
 20
488.892
 10
384.42
 20
488.957
 10
384.081
 20
489.014
 10
383.74
 20
489.061
 10
383.398
 20
489.1
 10
383.053
 20
489.131
 10
382.707
 20
489.152
 10
382.358
 20
489.165
 10
382.008
 20
489.169
 10
381.566
 20
489.169
 10
381.566
 20
489.169
 10
381.268
 20
489.166
 10
380.972
 20
489.155
 10
380.676
 20
489.137
 10
380.382
 20
489.112
 10
380.089
 20
489.079
 10
379.798
 20
489.04
 10
379.508
 20
488.993
 10
379.219
 20
488.939
 10
378.931
 20
488.877
 10
378.645
 20
488.809
 10
378.36
 20
488.733
 10
378.076
 20
488.65
 10
377.794
 20
488.56
 10
377.513
 20
488.463
 10
377.233
 20
488.358
 10
377.233
 20
488.358
 10
376.956
 20
488.247
 10
376.683
 20
488.13
 10
376.414
 20
488.007
 10
376.15
 20
487.878
 10
375.89
 20
487.743
 10
375.634
 20
487.602
 10
375.382
 20
487.455
 10
375.135
 20
487.302
 10
374.891
 20
487.144
 10
374.653
 20
486.979
 10
374.418
 20
486.808
 10
374.187
 20
486.631
 10
373.961
 20
486.449
 10
373.739
 20
486.26
 10
373.521
 20
486.066
 10
373.521
 20
486.066
 10
373.308
 20
485.866
 10
373.101
 20
485.66
 10
372.899
 20
485.45
 10
372.703
 20
485.235
 10
372.512
 20
485.014
 10
372.327
 20
484.788
 10
372.147
 20
484.557
 10
371.973
 20
484.321
 10
371.804
 20
484.08
 10
371.641
 20
483.834
 10
371.484
 20
483.582
 10
371.332
 20
483.326
 10
371.186
 20
483.064
 10
371.045
 20
482.797
 10
370.909
 20
482.525
 10
370.909
 20
482.525
 10
370.781
 20
482.249
 10
370.662
 20
481.969
 10
370.552
 20
481.686
 10
370.45
 20
481.399
 10
370.357
 20
481.109
 10
370.273
 20
480.816
 10
370.198
 20
480.518
 10
370.132
 20
480.218
 10
370.075
 20
479.913
 10
370.026
 20
479.606
 10
369.986
 20
479.295
 10
369.955
 20
478.98
 10
369.933
 20
478.662
 10
369.92
 20
478.34
 10
369.916
 20
478.015
 10
369.916
 20
477.107
 10
369.916
 20
477.107
 10
369.92
 20
476.791
 10
369.931
 20
476.479
 10
369.95
 20
476.171
 10
369.977
 20
475.866
 10
370.012
 20
475.566
 10
370.055
 20
475.268
 10
370.105
 20
474.975
 10
370.163
 20
474.685
 10
370.228
 20
474.399
 10
370.302
 20
474.117
 10
370.383
 20
473.838
 10
370.471
 20
473.563
 10
370.568
 20
473.291
 10
370.672
 20
473.024
 10
370.784
 20
472.76
 10
370.784
 20
472.76
 10
370.903
 20
472.5
 10
371.026
 20
472.244
 10
371.155
 20
471.994
 10
371.29
 20
471.748
 10
371.429
 20
471.507
 10
371.574
 20
471.27
 10
371.724
 20
471.038
 10
371.88
 20
470.81
 10
372.04
 20
470.587
 10
372.207
 20
470.369
 10
372.378
 20
470.155
 10
372.555
 20
469.946
 10
372.737
 20
469.742
 10
372.924
 20
469.542
 10
373.116
 20
469.347
 10
373.116
 20
469.347
 10
373.313
 20
469.157
 10
373.515
 20
468.972
 10
373.72
 20
468.792
 10
373.929
 20
468.617
 10
374.142
 20
468.447
 10
374.359
 20
468.283
 10
374.58
 20
468.123
 10
374.806
 20
467.969
 10
375.035
 20
467.82
 10
375.268
 20
467.676
 10
375.505
 20
467.537
 10
375.868
 20
467.338
 10
376.24
 20
467.151
 10
376.493
 20
467.033
 10
376.493
 20
467.033
 10
376.878
 20
466.866
 10
377.268
 20
466.713
 10
377.661
 20
466.574
 10
378.059
 20
466.449
 10
378.462
 20
466.337
 10
378.869
 20
466.24
 10
379.28
 20
466.156
 10
379.696
 20
466.086
 10
380.116
 20
466.03
 10
380.54
 20
465.988
 10
380.54
 20
465.988
 10
381.271
 20
465.923
 10
381.899
 20
465.887
 10
382.5
 20
465.871
 10
382.63
 20
465.871
 10
382.63
 20
465.871
 10
383.082
 20
465.877
 10
383.526
 20
465.897
 10
383.963
 20
465.93
 10
384.392
 20
465.975
 10
384.815
 20
466.034
 10
385.23
 20
466.106
 10
385.638
 20
466.191
 10
385.906
 20
466.254
 10
386.171
 20
466.324
 10
386.432
 20
466.399
 10
386.691
 20
466.481
 10
386.819
 20
466.523
 10
388.3
 20
467.105
 10
388.3
 20
467.105
 10
388.4
 20
467.143
 10
388.501
 20
467.184
 10
388.605
 20
467.228
 10
388.709
 20
467.276
 10
388.816
 20
467.327
 10
388.925
 20
467.382
 10
389.147
 20
467.501
 10
389.376
 20
467.634
 10
389.612
 20
467.78
 10
389.856
 20
467.94
 10
390.234
 20
468.205
 10
390.628
 20
468.501
 10
391.178
 20
468.942
 10
391.757
 20
469.438
 10
392.056
 20
469.707
 10
392.056
 20
469.707
 10
391.464
 20
469.184
 10
390.9
 20
468.715
 10
390.495
 20
468.399
 10
390.106
 20
468.113
 10
389.856
 20
467.94
 10
389.612
 20
467.78
 10
389.376
 20
467.634
 10
389.147
 20
467.501
 10
388.925
 20
467.382
 10
388.816
 20
467.327
 10
388.709
 20
467.276
 10
388.605
 20
467.228
 10
388.501
 20
467.184
 10
388.4
 20
467.143
 10
388.3
 20
467.105
 10
386.819
 20
466.523
 10
386.819
 20
466.523
 10
386.562
 20
466.439
 10
386.302
 20
466.361
 10
386.039
 20
466.288
 10
385.638
 20
466.191
 10
385.23
 20
466.106
 10
384.815
 20
466.034
 10
384.392
 20
465.975
 10
383.963
 20
465.93
 10
383.526
 20
465.897
 10
383.082
 20
465.877
 10
382.63
 20
465.871
 10
382.63
 20
465.871
 10
382.035
 20
465.881
 10
381.342
 20
465.918
 10
380.54
 20
465.988
 10
380.54
 20
465.988
 10
380.116
 20
466.03
 10
379.696
 20
466.086
 10
379.28
 20
466.156
 10
378.869
 20
466.24
 10
378.462
 20
466.337
 10
378.059
 20
466.449
 10
377.661
 20
466.574
 10
377.268
 20
466.713
 10
376.878
 20
466.866
 10
376.493
 20
467.033
 10
376.493
 20
467.033
 10
376.115
 20
467.212
 10
375.746
 20
467.403
 10
375.505
 20
467.537
 10
375.268
 20
467.676
 10
375.035
 20
467.82
 10
374.806
 20
467.969
 10
374.58
 20
468.123
 10
374.359
 20
468.283
 10
374.142
 20
468.447
 10
373.929
 20
468.617
 10
373.72
 20
468.792
 10
373.515
 20
468.972
 10
373.313
 20
469.157
 10
373.116
 20
469.347
 10
373.116
 20
469.347
 10
372.924
 20
469.542
 10
372.737
 20
469.742
 10
372.555
 20
469.946
 10
372.378
 20
470.155
 10
372.207
 20
470.369
 10
372.04
 20
470.587
 10
371.88
 20
470.81
 10
371.724
 20
471.038
 10
371.574
 20
471.27
 10
371.429
 20
471.507
 10
371.29
 20
471.748
 10
371.155
 20
471.994
 10
371.026
 20
472.244
 10
370.903
 20
472.5
 10
370.784
 20
472.76
 10
370.784
 20
472.76
 10
370.672
 20
473.024
 10
370.568
 20
473.291
 10
370.471
 20
473.563
 10
370.383
 20
473.838
 10
370.302
 20
474.117
 10
370.228
 20
474.399
 10
370.163
 20
474.685
 10
370.105
 20
474.975
 10
370.055
 20
475.268
 10
370.012
 20
475.566
 10
369.977
 20
475.866
 10
369.95
 20
476.171
 10
369.931
 20
476.479
 10
369.92
 20
476.791
 10
369.916
 20
477.107
 10
369.916
 20
478.015
 10
369.916
 20
478.015
 10
369.92
 20
478.34
 10
369.933
 20
478.662
 10
369.955
 20
478.98
 10
369.986
 20
479.295
 10
370.026
 20
479.606
 10
370.075
 20
479.913
 10
370.132
 20
480.218
 10
370.198
 20
480.518
 10
370.273
 20
480.816
 10
370.357
 20
481.109
 10
370.45
 20
481.399
 10
370.552
 20
481.686
 10
370.662
 20
481.969
 10
370.781
 20
482.249
 10
370.909
 20
482.525
 10
370.909
 20
482.525
 10
371.045
 20
482.797
 10
371.186
 20
483.064
 10
371.332
 20
483.326
 10
371.484
 20
483.582
 10
371.641
 20
483.834
 10
371.804
 20
484.08
 10
371.973
 20
484.321
 10
372.147
 20
484.557
 10
372.327
 20
484.788
 10
372.512
 20
485.014
 10
372.703
 20
485.235
 10
372.899
 20
485.45
 10
373.101
 20
485.66
 10
373.308
 20
485.866
 10
373.521
 20
486.066
 10
373.521
 20
486.066
 10
373.739
 20
486.26
 10
373.961
 20
486.449
 10
374.187
 20
486.631
 10
374.418
 20
486.808
 10
374.653
 20
486.979
 10
374.891
 20
487.144
 10
375.135
 20
487.302
 10
375.382
 20
487.455
 10
375.634
 20
487.602
 10
375.89
 20
487.743
 10
376.15
 20
487.878
 10
376.414
 20
488.007
 10
376.683
 20
488.13
 10
376.956
 20
488.247
 10
377.233
 20
488.358
 10
377.233
 20
488.358
 10
377.513
 20
488.463
 10
377.794
 20
488.56
 10
378.076
 20
488.65
 10
378.36
 20
488.733
 10
378.645
 20
488.809
 10
378.931
 20
488.877
 10
379.219
 20
488.939
 10
379.508
 20
488.993
 10
379.798
 20
489.04
 10
380.089
 20
489.079
 10
380.382
 20
489.112
 10
380.676
 20
489.137
 10
380.972
 20
489.155
 10
381.268
 20
489.166
 10
381.566
 20
489.169
 10
382.008
 20
489.169
 10
382.008
 20
489.169
 10
382.358
 20
489.165
 10
382.707
 20
489.152
 10
383.053
 20
489.13
 10
383.398
 20
489.1
 10
383.74
 20
489.061
 10
384.081
 20
489.014
 10
384.42
 20
488.957
 10
384.757
 20
488.892
 10
385.092
 20
488.819
 10
385.424
 20
488.736
 10
385.755
 20
488.645
 10
386.084
 20
488.546
 10
386.411
 20
488.437
 10
386.737
 20
488.32
 10
387.06
 20
488.195
 10
387.06
 20
488.195
 10
387.378
 20
488.061
 10
387.69
 20
487.919
 10
387.995
 20
487.77
 10
388.293
 20
487.613
 10
388.583
 20
487.448
 10
388.867
 20
487.275
 10
389.144
 20
487.095
 10
389.414
 20
486.907
 10
389.677
 20
486.712
 10
389.933
 20
486.508
 10
390.181
 20
486.297
 10
390.423
 20
486.078
 10
390.658
 20
485.851
 10
390.886
 20
485.617
 10
391.107
 20
485.375
 10
391.107
 20
485.375
 10
391.24
 20
485.217
 10
391.368
 20
485.055
 10
391.491
 20
484.89
 10
391.61
 20
484.722
 10
391.724
 20
484.55
 10
391.834
 20
484.375
 10
391.94
 20
484.197
 10
392.04
 20
484.015
 10
392.137
 20
483.83
 10
392.229
 20
483.641
 10
392.316
 20
483.45
 10
392.399
 20
483.254
 10
392.478
 20
483.056
 10
392.552
 20
482.854
 10
392.621
 20
482.648
 10
392.686
 20
482.439
 10
392.747
 20
482.227
 10
392.803
 20
482.012
 10
392.855
 20
481.793
 10
392.902
 20
481.571
 10
392.944
 20
481.345
 10
392.983
 20
481.116
 10
393.016
 20
480.884
 10
393.045
 20
480.648
 10
393.07
 20
480.409
 10
393.09
 20
480.166
 10
393.106
 20
479.92
 10
393.117
 20
479.671
 10
393.124
 20
479.419
 10
393.126
 20
479.163
 10
393.126
 20
479.163
 10
393.092
 20
478.787
 10
393.045
 20
478.412
 10
392.986
 20
478.04
 10
392.915
 20
477.668
 10
392.831
 20
477.298
 10
392.734
 20
476.929
 10
392.626
 20
476.562
 10
392.567
 20
476.379
 10
392.567
 20
476.379
 10
392.472
 20
476.107
 10
392.371
 20
475.839
 10
392.264
 20
475.576
 10
392.149
 20
475.318
 10
392.028
 20
475.065
 10
391.899
 20
474.816
 10
391.765
 20
474.572
 10
391.623
 20
474.333
 10
391.474
 20
474.098
 10
391.319
 20
473.868
 10
391.319
 20
473.868
 10
391.157
 20
473.644
 10
390.99
 20
473.426
 10
390.817
 20
473.216
 10
390.638
 20
473.012
 10
390.453
 20
472.815
 10
390.262
 20
472.624
 10
390.065
 20
472.441
 10
389.863
 20
472.264
 10
389.655
 20
472.094
 10
389.441
 20
471.931
 10
389.441
 20
471.931
 10
389.295
 20
471.828
 10
389.146
 20
471.729
 10
388.995
 20
471.635
 10
388.842
 20
471.547
 10
388.686
 20
471.464
 10
388.528
 20
471.387
 10
388.367
 20
471.314
 10
388.203
 20
471.247
 10
388.037
 20
471.184
 10
387.869
 20
471.128
 10
387.698
 20
471.076
 10
387.525
 20
471.029
 10
387.349
 20
470.988
 10
387.17
 20
470.952
 10
386.989
 20
470.921
 10
386.989
 20
470.921
 10
386.826
 20
470.923
 10
386.668
 20
470.927
 10
386.515
 20
470.935
 10
386.368
 20
470.946
 10
386.227
 20
470.96
 10
386.091
 20
470.978
 10
385.961
 20
470.998
 10
385.836
 20
471.022
 10
385.716
 20
471.048
 10
385.603
 20
471.078
 10
385.495
 20
471.111
 10
385.392
 20
471.147
 10
385.295
 20
471.186
 10
385.204
 20
471.229
 10
385.118
 20
471.274
 10
385.037
 20
471.323
 10
384.962
 20
471.374
 10
384.893
 20
471.429
 10
384.829
 20
471.487
 10
384.771
 20
471.549
 10
384.718
 20
471.613
 10
384.671
 20
471.68
 10
384.63
 20
471.751
 10
384.594
 20
471.825
 10
384.563
 20
471.901
 10
384.538
 20
471.981
 10
384.519
 20
472.065
 10
384.505
 20
472.151
 10
384.497
 20
472.24
 10
384.494
 20
472.333
 10
384.494
 20
472.333
 10
384.495
 20
472.398
 10
384.498
 20
472.463
 10
384.503
 20
472.528
 10
384.511
 20
472.593
 10
384.52
 20
472.657
 10
384.532
 20
472.721
 10
384.546
 20
472.785
 10
384.562
 20
472.849
 10
384.58
 20
472.913
 10
384.6
 20
472.977
 10
384.6
 20
472.977
 10
384.397
 20
472.773
 10
384.192
 20
472.579
 10
383.985
 20
472.394
 10
383.774
 20
472.218
 10
383.562
 20
472.052
 10
383.346
 20
471.894
 10
383.128
 20
471.746
 10
382.981
 20
471.653
 10
382.833
 20
471.563
 10
382.683
 20
471.478
 10
382.533
 20
471.397
 10
382.457
 20
471.358
 10
382.457
 20
471.358
 10
382.305
 20
471.283
 10
382.151
 20
471.214
 10
381.995
 20
471.15
 10
381.839
 20
471.091
 10
381.68
 20
471.037
 10
381.52
 20
470.988
 10
381.359
 20
470.944
 10
381.196
 20
470.906
 10
381.032
 20
470.872
 10
380.866
 20
470.844
 10
380.699
 20
470.821
 10
380.53
 20
470.803
 10
380.36
 20
470.79
 10
380.188
 20
470.782
 10
380.014
 20
470.78
 10
380.014
 20
470.78
 10
379.821
 20
470.783
 10
379.584
 20
470.794
 10
379.34
 20
470.814
 10
379.089
 20
470.842
 10
378.789
 20
470.886
 10
378.789
 20
470.886
 10
378.682
 20
470.906
 10
378.576
 20
470.929
 10
378.471
 20
470.954
 10
378.368
 20
470.981
 10
378.267
 20
471.01
 10
378.167
 20
471.042
 10
378.068
 20
471.076
 10
377.971
 20
471.112
 10
377.876
 20
471.15
 10
377.781
 20
471.19
 10
377.689
 20
471.233
 10
377.598
 20
471.277
 10
377.508
 20
471.324
 10
377.42
 20
471.373
 10
377.333
 20
471.424
 10
377.248
 20
471.478
 10
377.164
 20
471.534
 10
377.082
 20
471.592
 10
377.001
 20
471.652
 10
376.922
 20
471.714
 10
376.844
 20
471.778
 10
376.768
 20
471.845
 10
376.693
 20
471.914
 10
376.619
 20
471.985
 10
376.547
 20
472.058
 10
376.477
 20
472.134
 10
376.408
 20
472.211
 10
376.341
 20
472.291
 10
376.275
 20
472.373
 10
376.21
 20
472.457
 10
376.21
 20
472.457
 10
376.147
 20
472.543
 10
376.087
 20
472.631
 10
376.028
 20
472.72
 10
375.972
 20
472.811
 10
375.918
 20
472.903
 10
375.866
 20
472.997
 10
375.816
 20
473.092
 10
375.768
 20
473.188
 10
375.722
 20
473.287
 10
375.679
 20
473.386
 10
375.637
 20
473.487
 10
375.598
 20
473.59
 10
375.561
 20
473.694
 10
375.525
 20
473.8
 10
375.492
 20
473.907
 10
375.462
 20
474.016
 10
375.433
 20
474.126
 10
375.406
 20
474.238
 10
375.382
 20
474.351
 10
375.36
 20
474.466
 10
375.339
 20
474.583
 10
375.321
 20
474.7
 10
375.305
 20
474.82
 10
375.292
 20
474.941
 10
375.28
 20
475.063
 10
375.27
 20
475.187
 10
375.258
 20
475.439
 10
375.253
 20
475.698
 10
375.253
 20
475.698
 10
375.272
 20
475.978
 10
375.299
 20
476.257
 10
375.336
 20
476.535
 10
375.382
 20
476.813
 10
375.437
 20
477.09
 10
375.501
 20
477.366
 10
375.574
 20
477.641
 10
375.656
 20
477.915
 10
375.748
 20
478.188
 10
375.848
 20
478.46
 10
375.848
 20
478.46
 10
375.956
 20
478.73
 10
376.072
 20
478.994
 10
376.193
 20
479.253
 10
376.322
 20
479.506
 10
376.458
 20
479.755
 10
376.6
 20
479.998
 10
376.749
 20
480.236
 10
376.905
 20
480.469
 10
377.068
 20
480.697
 10
377.237
 20
480.919
 10
377.237
 20
480.919
 10
377.413
 20
481.136
 10
377.595
 20
481.345
 10
377.783
 20
481.548
 10
377.978
 20
481.744
 10
378.178
 20
481.933
 10
378.385
 20
482.116
 10
378.598
 20
482.291
 10
378.817
 20
482.46
 10
379.042
 20
482.622
 10
379.274
 20
482.777
 10
379.274
 20
482.777
 10
379.431
 20
482.876
 10
379.591
 20
482.97
 10
379.753
 20
483.06
 10
379.916
 20
483.144
 10
380.082
 20
483.224
 10
380.25
 20
483.299
 10
380.42
 20
483.369
 10
380.593
 20
483.434
 10
380.767
 20
483.495
 10
380.943
 20
483.55
 10
381.122
 20
483.601
 10
381.303
 20
483.648
 10
381.485
 20
483.689
 10
381.67
 20
483.726
 10
381.857
 20
483.758
 10
381.857
 20
483.758
 10
381.908
 20
483.766
 10
381.963
 20
483.774
 10
382.036
 20
483.782
 10
382.131
 20
483.788
 10
382.251
 20
483.792
 10
382.325
 20
483.793
 10
382.686
 20
483.793
 10
382.686
 20
483.793
 10
382.817
 20
483.791
 10
382.95
 20
483.785
 10
383.083
 20
483.775
 10
383.217
 20
483.761
 10
383.352
 20
483.743
 10
383.488
 20
483.722
 10
383.626
 20
483.696
 10
383.811
 20
483.655
 10
383.997
 20
483.608
 10
384.044
 20
483.595
 10
384.044
 20
483.595
 10
384.185
 20
483.553
 10
384.323
 20
483.508
 10
384.461
 20
483.46
 10
384.596
 20
483.407
 10
384.731
 20
483.351
 10
384.864
 20
483.292
 10
384.995
 20
483.229
 10
385.125
 20
483.162
 10
385.253
 20
483.091
 10
385.38
 20
483.017
 10
385.38
 20
483.017
 10
385.505
 20
482.94
 10
385.626
 20
482.86
 10
385.744
 20
482.777
 10
385.859
 20
482.691
 10
385.971
 20
482.602
 10
386.08
 20
482.51
 10
386.185
 20
482.415
 10
386.287
 20
482.317
 10
386.386
 20
482.217
 10
386.482
 20
482.113
 10
386.482
 20
482.113
 10
386.544
 20
482.043
 10
386.603
 20
481.972
 10
386.661
 20
481.9
 10
386.715
 20
481.827
 10
386.768
 20
481.754
 10
386.818
 20
481.68
 10
386.866
 20
481.605
 10
386.911
 20
481.53
 10
386.955
 20
481.454
 10
386.996
 20
481.377
 10
387.034
 20
481.299
 10
387.071
 20
481.22
 10
387.105
 20
481.141
 10
387.136
 20
481.061
 10
387.166
 20
480.98
 10
387.854
 20
483.07
  0
LWPOLYLINE
  5
20
  8
LAYER2
 90
   204
 10
387.166
 20
480.977
 10
387.166
 20
480.977
 10
387.136
 20
481.058
 10
387.105
 20
481.138
 10
387.071
 20
481.217
 10
387.034
 20
481.295
 10
386.996
 20
481.373
 10
386.955
 20
481.45
 10
386.911
 20
481.527
 10
386.866
 20
481.602
 10
386.818
 20
481.677
 10
386.768
 20
481.751
 10
386.715
 20
481.825
 10
386.661
 20
481.897
 10
386.603
 20
481.969
 10
386.544
 20
482.04
 10
386.482
 20
482.111
 10
386.482
 20
482.111
 10
386.386
 20
482.214
 10
386.287
 20
482.315
 10
386.185
 20
482.413
 10
386.08
 20
482.508
 10
385.971
 20
482.6
 10
385.859
 20
482.689
 10
385.744
 20
482.775
 10
385.626
 20
482.858
 10
385.505
 20
482.938
 10
385.38
 20
483.016
 10
385.38
 20
483.016
 10
385.253
 20
483.09
 10
385.125
 20
483.16
 10
384.995
 20
483.227
 10
384.864
 20
483.29
 10
384.731
 20
483.35
 10
384.596
 20
483.406
 10
384.461
 20
483.459
 10
384.323
 20
483.507
 10
384.185
 20
483.553
 10
384.044
 20
483.594
 10
384.044
 20
483.594
 10
383.857
 20
483.644
 10
383.672
 20
483.686
 10
383.534
 20
483.713
 10
383.397
 20
483.736
 10
383.262
 20
483.756
 10
383.127
 20
483.771
 10
382.994
 20
483.782
 10
382.861
 20
483.789
 10
382.73
 20
483.793
 10
382.686
 20
483.793
 10
382.325
 20
483.793
 10
382.325
 20
483.793
 10
382.198
 20
483.791
 10
382.099
 20
483.786
 10
382.021
 20
483.78
 10
381.963
 20
483.774
 10
381.908
 20
483.766
 10
381.87
 20
483.76
 10
381.857
 20
483.758
 10
381.857
 20
483.758
 10
381.67
 20
483.726
 10
381.485
 20
483.689
 10
381.303
 20
483.648
 10
381.122
 20
483.601
 10
380.943
 20
483.55
 10
380.767
 20
483.495
 10
380.593
 20
483.434
 10
380.42
 20
483.369
 10
380.25
 20
483.299
 10
380.082
 20
483.224
 10
379.916
 20
483.144
 10
379.753
 20
483.06
 10
379.591
 20
482.97
 10
379.431
 20
482.876
 10
379.274
 20
482.777
 10
379.274
 20
482.777
 10
379.042
 20
482.622
 10
378.817
 20
482.46
 10
378.598
 20
482.291
 10
378.385
 20
482.116
 10
378.178
 20
481.933
 10
377.978
 20
481.744
 10
377.783
 20
481.548
 10
377.595
 20
481.345
 10
377.413
 20
481.136
 10
377.237
 20
480.919
 10
377.237
 20
480.919
 10
377.068
 20
480.697
 10
376.905
 20
480.469
 10
376.749
 20
480.236
 10
376.6
 20
479.998
 10
376.458
 20
479.755
 10
376.322
 20
479.506
 10
376.193
 20
479.253
 10
376.072
 20
478.994
 10
375.956
 20
478.73
 10
375.848
 20
478.46
 10
375.848
 20
478.46
 10
375.748
 20
478.188
 10
375.656
 20
477.915
 10
375.574
 20
477.641
 10
375.501
 20
477.366
 10
375.437
 20
477.09
 10
375.382
 20
476.813
 10
375.336
 20
476.535
 10
375.299
 20
476.257
 10
375.272
 20
475.978
 10
375.253
 20
475.698
 10
375.253
 20
475.698
 10
375.258
 20
475.439
 10
375.27
 20
475.187
 10
375.28
 20
475.063
 10
375.292
 20
474.941
 10
375.305
 20
474.82
 10
375.321
 20
474.7
 10
375.339
 20
474.583
 10
375.36
 20
474.466
 10
375.382
 20
474.351
 10
375.406
 20
474.238
 10
375.433
 20
474.126
 10
375.462
 20
474.016
 10
375.492
 20
473.907
 10
375.525
 20
473.8
 10
375.561
 20
473.694
 10
375.598
 20
473.59
 10
375.637
 20
473.487
 10
375.679
 20
473.386
 10
375.722
 20
473.287
 10
375.768
 20
473.188
 10
375.816
 20
473.092
 10
375.866
 20
472.997
 10
375.918
 20
472.903
 10
375.972
 20
472.811
 10
376.028
 20
472.72
 10
376.087
 20
472.631
 10
376.147
 20
472.543
 10
376.21
 20
472.457
 10
376.21
 20
472.457
 10
376.275
 20
472.373
 10
376.341
 20
472.291
 10
376.408
 20
472.211
 10
376.477
 20
472.134
 10
376.547
 20
472.058
 10
376.619
 20
471.985
 10
376.693
 20
471.914
 10
376.768
 20
471.845
 10
376.844
 20
471.778
 10
376.922
 20
471.714
 10
377.001
 20
471.652
 10
377.082
 20
471.592
 10
377.164
 20
471.534
 10
377.248
 20
471.478
 10
377.333
 20
471.424
 10
377.42
 20
471.373
 10
377.508
 20
471.324
 10
377.598
 20
471.277
 10
377.689
 20
471.233
 10
377.781
 20
471.19
 10
377.876
 20
471.15
 10
377.971
 20
471.112
 10
378.068
 20
471.076
 10
378.167
 20
471.042
 10
378.267
 20
471.01
 10
378.368
 20
470.981
 10
378.471
 20
470.954
 10
378.576
 20
470.929
 10
378.682
 20
470.906
 10
378.789
 20
470.886
 10
378.789
 20
470.886
 10
379.089
 20
470.842
 10
379.34
 20
470.814
 10
379.584
 20
470.794
 10
379.821
 20
470.783
 10
380.014
 20
470.78
 10
380.014
 20
470.78
 10
380.188
 20
470.782
 10
380.36
 20
470.79
 10
380.53
 20
470.803
 10
380.699
 20
470.821
 10
380.866
 20
470.844
 10
381.032
 20
470.872
 10
381.196
 20
470.906
 10
381.359
 20
470.944
 10
381.52
 20
470.988
 10
381.68
 20
471.037
 10
381.839
 20
471.091
 10
381.995
 20
471.15
 10
382.151
 20
471.214
 10
382.305
 20
471.284
 10
382.457
 20
471.358
 10
382.457
 20
471.358
 10
382.608
 20
471.437
 10
382.758
 20
471.521
 10
382.907
 20
471.608
 10
383.054
 20
471.7
 10
383.273
 20
471.845
 10
383.49
 20
471.999
 10
383.704
 20
472.162
 10
383.915
 20
472.335
 10
384.123
 20
472.517
 10
384.329
 20
472.709
 10
384.533
 20
472.909
 10
384.6
 20
472.978
 10
387.166
 20
480.977
  0
LWPOLYLINE
  5
21
  8
LAYER2
 90
   132
 10
400.464
 20
486.91
 10
400.464
 20
481.383
 10
400.464
 20
469.738
 10
400.464
 20
469.738
 10
400.464
 20
469.642
 10
400.467
 20
469.547
 10
400.472
 20
469.453
 10
400.478
 20
469.36
 10
400.487
 20
469.268
 10
400.497
 20
469.177
 10
400.509
 20
469.088
 10
400.522
 20
468.999
 10
400.538
 20
468.911
 10
400.556
 20
468.825
 10
400.575
 20
468.739
 10
400.596
 20
468.655
 10
400.619
 20
468.571
 10
400.644
 20
468.489
 10
400.671
 20
468.408
 10
400.699
 20
468.327
 10
400.73
 20
468.248
 10
400.762
 20
468.17
 10
400.796
 20
468.093
 10
400.832
 20
468.017
 10
400.87
 20
467.942
 10
400.909
 20
467.868
 10
400.951
 20
467.795
 10
400.994
 20
467.723
 10
401.039
 20
467.652
 10
401.086
 20
467.582
 10
401.135
 20
467.514
 10
401.186
 20
467.446
 10
401.238
 20
467.379
 10
401.292
 20
467.314
 10
401.292
 20
467.314
 10
401.348
 20
467.25
 10
401.406
 20
467.188
 10
401.464
 20
467.129
 10
401.524
 20
467.071
 10
401.586
 20
467.016
 10
401.649
 20
466.963
 10
401.713
 20
466.912
 10
401.778
 20
466.863
 10
401.845
 20
466.816
 10
401.914
 20
466.772
 10
401.983
 20
466.73
 10
402.054
 20
466.69
 10
402.127
 20
466.652
 10
402.2
 20
466.616
 10
402.276
 20
466.582
 10
402.352
 20
466.551
 10
402.43
 20
466.522
 10
402.509
 20
466.494
 10
402.59
 20
466.469
 10
402.672
 20
466.447
 10
402.755
 20
466.426
 10
402.84
 20
466.408
 10
402.926
 20
466.391
 10
403.014
 20
466.377
 10
403.103
 20
466.365
 10
403.193
 20
466.356
 10
403.285
 20
466.348
 10
403.378
 20
466.343
 10
403.472
 20
466.339
 10
403.568
 20
466.338
 10
403.568
 20
466.338
 10
403.472
 20
466.339
 10
403.378
 20
466.343
 10
403.285
 20
466.348
 10
403.193
 20
466.356
 10
403.103
 20
466.365
 10
403.014
 20
466.377
 10
402.926
 20
466.391
 10
402.84
 20
466.408
 10
402.755
 20
466.426
 10
402.672
 20
466.447
 10
402.59
 20
466.469
 10
402.509
 20
466.494
 10
402.43
 20
466.522
 10
402.352
 20
466.551
 10
402.276
 20
466.582
 10
402.2
 20
466.616
 10
402.127
 20
466.652
 10
402.054
 20
466.69
 10
401.983
 20
466.73
 10
401.914
 20
466.772
 10
401.845
 20
466.816
 10
401.778
 20
466.863
 10
401.713
 20
466.912
 10
401.649
 20
466.963
 10
401.586
 20
467.016
 10
401.524
 20
467.071
 10
401.464
 20
467.129
 10
401.406
 20
467.188
 10
401.348
 20
467.25
 10
401.292
 20
467.314
 10
401.292
 20
467.314
 10
401.238
 20
467.379
 10
401.186
 20
467.446
 10
401.135
 20
467.514
 10
401.086
 20
467.582
 10
401.039
 20
467.652
 10
400.994
 20
467.723
 10
400.951
 20
467.795
 10
400.909
 20
467.868
 10
400.87
 20
467.942
 10
400.832
 20
468.017
 10
400.796
 20
468.093
 10
400.762
 20
468.17
 10
400.73
 20
468.248
 10
400.699
 20
468.327
 10
400.671
 20
468.408
 10
400.644
 20
468.489
 10
400.619
 20
468.571
 10
400.596
 20
468.655
 10
400.575
 20
468.739
 10
400.556
 20
468.825
 10
400.538
 20
468.911
 10
400.522
 20
468.999
 10
400.509
 20
469.088
 10
400.497
 20
469.177
 10
400.487
 20
469.268
 10
400.478
 20
469.36
 10
400.472
 20
469.453
 10
400.467
 20
469.547
 10
400.464
 20
469.642
 10
400.464
 20
469.738
 10
400.464
 20
481.383
 10
403.568
 20
481.383
 10
400.464
 20
481.383
 10
398.189
 20
481.383
 10
400.464
 20
481.383
  0
LWPOLYLINE
  5
22
  8
LAYER9
 90
    49
 10
298.986
 20
730.236
 10
298.98
 20
730.334
 10
298.96
 20
730.43
 10
298.929
 20
730.523
 10
298.885
 20
730.611
 10
298.831
 20
730.693
 10
298.766
 20
730.767
 10
298.693
 20
730.831
 10
298.611
 20
730.886
 10
298.523
 20
730.929
 10
298.43
 20
730.961
 10
298.334
 20
730.98
 10
298.236
 20
730.986
 10
298.138
 20
730.98
 10
298.042
 20
730.961
 10
297.949
 20
730.929
 10
297.861
 20
730.886
 10
297.779
 20
730.831
 10
297.706
 20
730.767
 10
297.641
 20
730.693
 10
297.586
 20
730.611
 10
297.543
 20
730.523
 10
297.511
 20
730.43
 10
297.492
 20
730.334
 10
297.486
 20
730.236
 10
297.492
 20
730.138
 10
297.511
 20
730.042
 10
297.543
 20
729.949
 10
297.586
 20
729.861
 10
297.641
 20
729.78
 10
297.706
 20
729.706
 10
297.779
 20
729.641
 10
297.861
 20
729.587
 10
297.949
 20
729.543
 10
298.042
 20
729.512
 10
298.138
 20
729.493
 10
298.236
 20
729.486
 10
298.334
 20
729.493
 10
298.43
 20
729.512
 10
298.523
 20
729.543
 10
298.611
 20
729.587
 10
298.693
 20
729.641
 10
298.766
 20
729.706
 10
298.831
 20
729.78
 10
298.885
 20
729.861
 10
298.929
 20
729.949
 10
298.96
 20
730.042
 10
298.98
 20
730.138
 10
298.986
 20
730.236
  0
LWPOLYLINE
  5
23
  8
LAYER9
 90
   164
 10
655.295
 20
666.807
 10
661.855
 20
679.287
 10
410.913
 20
687.699
 10
403.365
 20
762.144
 10
346.077
 20
762.287
 10
344.99
 20
762.252
 10
343.904
 20
762.204
 10
342.82
 20
762.143
 10
341.739
 20
762.069
 10
340.662
 20
761.981
 10
339.59
 20
761.878
 10
338.524
 20
761.76
 10
337.465
 20
761.627
 10
336.414
 20
761.479
 10
335.372
 20
761.314
 10
334.34
 20
761.133
 10
333.319
 20
760.934
 10
332.31
 20
760.718
 10
331.314
 20
760.484
 10
330.332
 20
760.232
 10
329.366
 20
759.961
 10
328.415
 20
759.67
 10
327.482
 20
759.36
 10
326.567
 20
759.03
 10
325.672
 20
758.678
 10
324.796
 20
758.306
 10
323.942
 20
757.912
 10
323.11
 20
757.496
 10
323.04
 20
757.46
 10
322.502
 20
757.176
 10
321.927
 20
756.861
 10
321.353
 20
756.536
 10
320.636
 20
756.115
 10
319.919
 20
755.678
 10
319.204
 20
755.227
 10
318.419
 20
754.714
 10
317.566
 20
754.135
 10
316.752
 20
753.564
 10
315.802
 20
752.874
 10
314.859
 20
752.164
 10
313.821
 20
751.354
 10
312.828
 20
750.552
 10
311.847
 20
749.734
 10
310.813
 20
748.843
 10
309.666
 20
747.821
 10
308.511
 20
746.756
 10
307.445
 20
745.741
 10
306.497
 20
744.809
 10
305.367
 20
743.665
 10
304.277
 20
742.522
 10
303.282
 20
741.445
 10
302.405
 20
740.467
 10
301.49
 20
739.412
 10
300.69
 20
738.46
 10
299.975
 20
737.583
 10
299.233
 20
736.641
 10
298.637
 20
735.858
 10
298.095
 20
735.122
 10
297.638
 20
734.482
 10
284.381
 20
716.488
 10
283.72
 20
715.656
 10
283.033
 20
714.845
 10
282.32
 20
714.055
 10
281.583
 20
713.286
 10
280.822
 20
712.539
 10
280.038
 20
711.811
 10
279.233
 20
711.103
 10
278.406
 20
710.416
 10
277.56
 20
709.747
 10
276.694
 20
709.098
 10
275.811
 20
708.468
 10
274.91
 20
707.856
 10
273.992
 20
707.262
 10
273.06
 20
706.687
 10
272.112
 20
706.129
 10
271.151
 20
705.588
 10
270.178
 20
705.065
 10
269.192
 20
704.558
 10
268.196
 20
704.068
 10
267.189
 20
703.594
 10
266.174
 20
703.136
 10
265.15
 20
702.694
 10
264.119
 20
702.266
 10
263.082
 20
701.854
 10
262.039
 20
701.457
 10
260.991
 20
701.074
 10
259.94
 20
700.705
 10
258.886
 20
700.349
 10
257.83
 20
700.008
 10
256.774
 20
699.679
 10
255.717
 20
699.364
 10
254.661
 20
699.061
 10
253.607
 20
698.77
 10
252.556
 20
698.492
 10
251.508
 20
698.225
 10
250.465
 20
697.969
 10
248.396
 20
697.491
 10
246.355
 20
697.056
 10
244.351
 20
696.66
 10
242.39
 20
696.301
 10
240.48
 20
695.978
 10
237.726
 20
695.553
 10
235.127
 20
695.194
 10
231.944
 20
694.802
 10
224.89
 20
694.049
 10
224.154
 20
693.96
 10
224.153
 20
693.96
 10
188.78
 20
695.146
 10
188.779
 20
695.146
 10
157.716
 20
696.188
 10
157.715
 20
696.188
 10
154.181
 20
696.272
 10
150.668
 20
696.307
 10
147.177
 20
696.294
 10
143.711
 20
696.232
 10
140.273
 20
696.123
 10
136.862
 20
695.967
 10
133.483
 20
695.763
 10
130.137
 20
695.513
 10
126.826
 20
695.217
 10
123.551
 20
694.875
 10
120.316
 20
694.487
 10
117.121
 20
694.055
 10
113.97
 20
693.577
 10
110.863
 20
693.056
 10
107.804
 20
692.49
 10
104.793
 20
691.881
 10
102.815
 20
691.451
 10
100.859
 20
691.001
 10
98.9277
 20
690.533
 10
97.0207
 20
690.046
 10
95.1387
 20
689.54
 10
93.2823
 20
689.016
 10
91.4523
 20
688.473
 10
89.6492
 20
687.912
 10
87.8735
 20
687.332
 10
86.1259
 20
686.734
 10
84.4069
 20
686.118
 10
82.7172
 20
685.485
 10
81.0574
 20
684.833
 10
79.428
 20
684.164
 10
77.8297
 20
683.477
 10
76.2631
 20
682.772
 10
74.7287
 20
682.05
 10
73.9738
 20
681.683
 10
73.2271
 20
681.311
 10
72.4889
 20
680.935
 10
71.7591
 20
680.555
 10
71.0378
 20
680.17
 10
70.325
 20
679.781
 10
69.621
 20
679.388
 10
68.9256
 20
678.991
 10
68.2391
 20
678.589
 10
67.5615
 20
678.184
 10
66.8929
 20
677.774
 10
66.2332
 20
677.36
 10
65.5827
 20
676.942
 10
64.9413
 20
676.519
 10
64.3092
 20
676.093
 10
63.6865
 20
675.662
 10
63.0731
 20
675.228
 10
62.4693
 20
674.789
 10
61.875
 20
674.346
 10
61.8749
 20
665.109
  0
LWPOLYLINE
  5
24
  8
LAYER9
 90
    49
 10
122.624
 20
674.346
 10
122.618
 20
674.248
 10
122.599
 20
674.152
 10
122.567
 20
674.059
 10
122.524
 20
673.971
 10
122.469
 20
673.89
 10
122.405
 20
673.816
 10
122.331
 20
673.751
 10
122.249
 20
673.697
 10
122.161
 20
673.653
 10
122.069
 20
673.622
 10
121.972
 20
673.603
 10
121.874
 20
673.596
 10
121.777
 20
673.603
 10
121.68
 20
673.622
 10
121.587
 20
673.653
 10
121.499
 20
673.697
 10
121.418
 20
673.751
 10
121.344
 20
673.816
 10
121.279
 20
673.89
 10
121.225
 20
673.971
 10
121.182
 20
674.059
 10
121.15
 20
674.152
 10
121.131
 20
674.248
 10
121.124
 20
674.346
 10
121.131
 20
674.444
 10
121.15
 20
674.54
 10
121.182
 20
674.633
 10
121.225
 20
674.721
 10
121.279
 20
674.803
 10
121.344
 20
674.876
 10
121.418
 20
674.941
 10
121.499
 20
674.996
 10
121.587
 20
675.039
 10
121.68
 20
675.071
 10
121.777
 20
675.09
 10
121.874
 20
675.096
 10
121.972
 20
675.09
 10
122.069
 20
675.071
 10
122.161
 20
675.039
 10
122.249
 20
674.996
 10
122.331
 20
674.941
 10
122.405
 20
674.876
 10
122.469
 20
674.803
 10
122.524
 20
674.721
 10
122.567
 20
674.633
 10
122.599
 20
674.54
 10
122.618
 20
674.444
 10
122.624
 20
674.346
  0
LWPOLYLINE
  5
25
  8
LAYER9
 90
     2
 10
323.379
 20
691.133
 10
410.43
 20
688.215
  0
LWPOLYLINE
  5
26
  8
LAYER9
 90
    31
 10
61.8749
 20
660.024
 10
61.8749
 20
650.787
 10
86.875
 20
650.787
 10
86.875
 20
647.787
 10
111.875
 20
647.787
 10
111.875
 20
650.787
 10
186.875
 20
650.787
 10
186.875
 20
647.787
 10
211.875
 20
647.787
 10
211.875
 20
650.787
 10
286.875
 20
650.787
 10
286.875
 20
647.787
 10
311.875
 20
647.787
 10
311.875
 20
650.787
 10
386.875
 20
650.787
 10
386.875
 20
647.787
 10
411.875
 20
647.787
 10
411.875
 20
650.787
 10
486.875
 20
650.787
 10
486.875
 20
647.787
 10
511.874
 20
647.787
 10
511.874
 20
650.787
 10
586.874
 20
650.787
 10
586.874
 20
647.787
 10
611.874
 20
647.787
 10
611.874
 20
650.787
 10
636.874
 20
650.787
 10
636.874
 20
647.787
 10
646.874
 20
647.787
 10
646.874
 20
650.787
 10
653.434
 20
663.267
  0
LWPOLYLINE
  5
27
  8
LAYER9
 90
    25
 10
653.858
 20
627.727
 10
653.858
 20
627.728
 10
646.937
 20
640.894
 10
561.874
 20
640.894
 10
561.874
 20
643.895
 10
536.874
 20
643.895
 10
536.874
 20
640.894
 10
461.875
 20
640.894
 10
461.875
 20
643.895
 10
436.875
 20
643.895
 10
436.875
 20
640.894
 10
361.875
 20
640.894
 10
361.875
 20
643.895
 10
336.875
 20
643.895
 10
336.875
 20
640.894
 10
261.875
 20
640.894
 10
261.875
 20
643.895
 10
236.875
 20
643.895
 10
236.875
 20
640.894
 10
161.875
 20
640.894
 10
161.875
 20
643.895
 10
136.875
 20
643.895
 10
136.875
 20
640.894
 10
61.8743
 20
640.894
 10
61.8746
 20
631.752
  0
LWPOLYLINE
  5
28
  8
LAYER9
 90
   166
 10
61.8747
 20
626.401
 10
61.875
 20
617.259
 10
62.4693
 20
616.822
 10
63.0731
 20
616.389
 10
63.6865
 20
615.96
 10
64.3092
 20
615.534
 10
64.9413
 20
615.113
 10
65.5827
 20
614.696
 10
66.2332
 20
614.283
 10
66.8929
 20
613.874
 10
67.5615
 20
613.469
 10
68.2391
 20
613.068
 10
68.9256
 20
612.671
 10
69.621
 20
612.278
 10
71.0378
 20
611.505
 10
71.7591
 20
611.125
 10
72.4889
 20
610.749
 10
73.2271
 20
610.377
 10
73.9738
 20
610.009
 10
75.4919
 20
609.286
 10
77.0424
 20
608.58
 10
78.6249
 20
607.891
 10
80.2389
 20
607.22
 10
81.8835
 20
606.565
 10
83.5583
 20
605.928
 10
85.2628
 20
605.309
 10
86.9961
 20
604.708
 10
88.7578
 20
604.124
 10
90.5474
 20
603.558
 10
92.364
 20
603.01
 10
94.2073
 20
602.481
 10
96.0765
 20
601.969
 10
97.9711
 20
601.476
 10
99.8905
 20
601.002
 10
101.834
 20
600.547
 10
104.793
 20
599.898
 10
107.804
 20
599.293
 10
110.863
 20
598.73
 10
113.97
 20
598.212
 10
117.121
 20
597.737
 10
120.316
 20
597.306
 10
123.551
 20
596.92
 10
126.826
 20
596.579
 10
130.137
 20
596.284
 10
133.483
 20
596.035
 10
136.862
 20
595.832
 10
140.273
 20
595.676
 10
143.711
 20
595.567
 10
147.177
 20
595.506
 10
150.668
 20
595.493
 10
154.181
 20
595.528
 10
157.715
 20
595.612
 10
157.716
 20
595.612
 10
224.154
 20
597.839
 10
224.156
 20
597.839
 10
224.476
 20
597.796
 10
225.227
 20
597.707
 10
231.665
 20
597.025
 10
234.815
 20
596.645
 10
237.401
 20
596.295
 10
240.151
 20
595.88
 10
242.063
 20
595.562
 10
244.029
 20
595.21
 10
246.042
 20
594.819
 10
248.093
 20
594.389
 10
250.176
 20
593.916
 10
251.227
 20
593.662
 10
252.282
 20
593.397
 10
253.342
 20
593.12
 10
254.405
 20
592.832
 10
255.471
 20
592.53
 10
256.537
 20
592.216
 10
257.604
 20
591.888
 10
258.67
 20
591.547
 10
259.735
 20
591.193
 10
260.797
 20
590.824
 10
261.856
 20
590.441
 10
262.911
 20
590.044
 10
263.96
 20
589.631
 10
265.003
 20
589.203
 10
266.038
 20
588.76
 10
267.066
 20
588.3
 10
268.084
 20
587.825
 10
269.093
 20
587.333
 10
270.09
 20
586.824
 10
271.076
 20
586.298
 10
272.049
 20
585.754
 10
273.008
 20
585.193
 10
273.952
 20
584.614
 10
274.88
 20
584.016
 10
275.792
 20
583.4
 10
276.687
 20
582.765
 10
277.563
 20
582.11
 10
278.419
 20
581.436
 10
279.256
 20
580.742
 10
280.071
 20
580.028
 10
280.863
 20
579.293
 10
281.633
 20
578.538
 10
282.378
 20
577.761
 10
283.099
 20
576.963
 10
283.793
 20
576.143
 10
284.46
 20
575.301
 10
284.535
 20
575.194
 10
297.648
 20
557.316
 10
297.649
 20
557.316
 10
298.079
 20
556.711
 10
298.585
 20
556.021
 10
299.175
 20
555.243
 10
299.77
 20
554.482
 10
300.547
 20
553.52
 10
301.335
 20
552.575
 10
302.195
 20
551.577
 10
303.129
 20
550.527
 10
304.14
 20
549.427
 10
305.19
 20
548.32
 10
306.238
 20
547.251
 10
307.358
 20
546.145
 10
308.468
 20
545.084
 10
309.606
 20
544.034
 10
310.724
 20
543.035
 10
311.819
 20
542.09
 10
312.797
 20
541.273
 10
313.877
 20
540.401
 10
314.879
 20
539.621
 10
315.843
 20
538.896
 10
316.722
 20
538.257
 10
317.513
 20
537.701
 10
318.354
 20
537.13
 10
319.151
 20
536.608
 10
319.903
 20
536.132
 10
320.656
 20
535.673
 10
321.364
 20
535.258
 10
321.977
 20
534.911
 10
322.638
 20
534.552
 10
323.109
 20
534.304
 10
323.11
 20
534.304
 10
323.942
 20
533.888
 10
324.796
 20
533.494
 10
325.672
 20
533.122
 10
326.567
 20
532.771
 10
327.482
 20
532.44
 10
328.415
 20
532.13
 10
329.366
 20
531.839
 10
330.332
 20
531.568
 10
331.314
 20
531.316
 10
332.31
 20
531.082
 10
333.319
 20
530.866
 10
334.34
 20
530.667
 10
335.372
 20
530.486
 10
336.414
 20
530.321
 10
337.465
 20
530.173
 10
338.524
 20
530.04
 10
339.59
 20
529.922
 10
340.662
 20
529.82
 10
341.739
 20
529.731
 10
342.82
 20
529.657
 10
343.904
 20
529.596
 10
344.99
 20
529.548
 10
346.077
 20
529.513
 10
403.359
 20
529.656
 10
403.362
 20
529.657
 10
403.364
 20
529.657
 10
403.365
 20
529.656
 10
410.913
 20
604.101
 10
661.855
 20
612.513
 10
655.719
 20
624.187
  0
LWPOLYLINE
  5
29
  8
LAYER9
 90
    49
 10
122.624
 20
616.704
 10
122.618
 20
616.606
 10
122.599
 20
616.51
 10
122.567
 20
616.417
 10
122.524
 20
616.329
 10
122.469
 20
616.247
 10
122.405
 20
616.173
 10
122.331
 20
616.109
 10
122.249
 20
616.054
 10
122.161
 20
616.011
 10
122.069
 20
615.979
 10
121.972
 20
615.96
 10
121.874
 20
615.954
 10
121.777
 20
615.96
 10
121.68
 20
615.979
 10
121.587
 20
616.011
 10
121.499
 20
616.054
 10
121.418
 20
616.109
 10
121.344
 20
616.173
 10
121.279
 20
616.247
 10
121.225
 20
616.329
 10
121.182
 20
616.417
 10
121.15
 20
616.51
 10
121.131
 20
616.606
 10
121.124
 20
616.704
 10
121.131
 20
616.802
 10
121.15
 20
616.898
 10
121.182
 20
616.991
 10
121.225
 20
617.079
 10
121.279
 20
617.16
 10
121.344
 20
617.234
 10
121.418
 20
617.299
 10
121.499
 20
617.353
 10
121.587
 20
617.397
 10
121.68
 20
617.428
 10
121.777
 20
617.447
 10
121.874
 20
617.454
 10
121.972
 20
617.447
 10
122.069
 20
617.428
 10
122.161
 20
617.397
 10
122.249
 20
617.353
 10
122.331
 20
617.299
 10
122.405
 20
617.234
 10
122.469
 20
617.16
 10
122.524
 20
617.079
 10
122.567
 20
616.991
 10
122.599
 20
616.898
 10
122.618
 20
616.802
 10
122.624
 20
616.704
  0
LWPOLYLINE
  5
2a
  8
LAYER9
 90
    49
 10
298.986
 20
561.563
 10
298.98
 20
561.661
 10
298.96
 20
561.758
 10
298.929
 20
561.85
 10
298.885
 20
561.938
 10
298.831
 20
562.02
 10
298.766
 20
562.094
 10
298.693
 20
562.158
 10
298.611
 20
562.213
 10
298.523
 20
562.256
 10
298.43
 20
562.288
 10
298.334
 20
562.307
 10
298.236
 20
562.313
 10
298.138
 20
562.307
 10
298.042
 20
562.288
 10
297.949
 20
562.256
 10
297.861
 20
562.213
 10
297.779
 20
562.158
 10
297.706
 20
562.094
 10
297.641
 20
562.02
 10
297.586
 20
561.938
 10
297.543
 20
561.85
 10
297.511
 20
561.758
 10
297.492
 20
561.661
 10
297.486
 20
561.563
 10
297.492
 20
561.466
 10
297.511
 20
561.369
 10
297.543
 20
561.276
 10
297.586
 20
561.188
 10
297.641
 20
561.107
 10
297.706
 20
561.033
 10
297.779
 20
560.968
 10
297.861
 20
560.914
 10
297.949
 20
560.871
 10
298.042
 20
560.839
 10
298.138
 20
560.82
 10
298.236
 20
560.813
 10
298.334
 20
560.82
 10
298.43
 20
560.839
 10
298.523
 20
560.871
 10
298.611
 20
560.914
 10
298.693
 20
560.968
 10
298.766
 20
561.033
 10
298.831
 20
561.107
 10
298.885
 20
561.188
 10
298.929
 20
561.276
 10
298.96
 20
561.369
 10
298.98
 20
561.466
 10
298.986
 20
561.563
  0
LWPOLYLINE
  5
2b
  8
LAYER9
 90
     2
 10
323.379
 20
600.666
 10
410.43
 20
603.584
  0
LWPOLYLINE
  5
2c
  8
LAYER3
 90
     7
 10
1079.19
 20
608.165
 10
905.914
 20
628.155
 10
905.913
 20
628.155
 10
891.4
 20
538.006
 10
889.598
 20
538.006
 10
875.084
 20
628.155
 10
701.808
 20
608.165
  0
LWPOLYLINE
  5
2d
  8
LAYER3
 90
   107
 10
697.835
 20
607.706
 10
524.558
 20
587.715
 10
524.558
 20
537.715
 10
524.644
 20
535.712
 10
524.755
 20
533.714
 10
524.891
 20
531.72
 10
525.051
 20
529.734
 10
525.237
 20
527.753
 10
525.449
 20
525.781
 10
525.685
 20
523.817
 10
525.948
 20
521.862
 10
526.236
 20
519.917
 10
526.55
 20
517.982
 10
526.89
 20
516.059
 10
527.256
 20
514.147
 10
527.649
 20
512.249
 10
528.068
 20
510.365
 10
528.514
 20
508.495
 10
528.987
 20
506.64
 10
529.487
 20
504.801
 10
530.014
 20
502.978
 10
530.568
 20
501.173
 10
531.149
 20
499.386
 10
531.759
 20
497.618
 10
532.395
 20
495.869
 10
533.06
 20
494.141
 10
533.403
 20
493.285
 10
533.753
 20
492.434
 10
534.11
 20
491.589
 10
534.474
 20
490.749
 10
535.224
 20
489.087
 10
535.609
 20
488.264
 10
536.401
 20
486.637
 10
536.808
 20
485.833
 10
537.222
 20
485.035
 10
537.644
 20
484.243
 10
538.072
 20
483.457
 10
538.508
 20
482.678
 10
538.951
 20
481.906
 10
539.401
 20
481.141
 10
539.859
 20
480.382
 10
540.324
 20
479.63
 10
540.797
 20
478.885
 10
541.276
 20
478.147
 10
541.763
 20
477.416
 10
542.258
 20
476.693
 10
542.76
 20
475.977
 10
543.269
 20
475.268
 10
543.786
 20
474.567
 10
544.311
 20
473.873
 10
544.842
 20
473.188
 10
545.382
 20
472.51
 10
545.929
 20
471.84
 10
546.483
 20
471.178
 10
547.045
 20
470.524
 10
547.615
 20
469.878
 10
548.193
 20
469.241
 10
548.777
 20
468.612
 10
549.37
 20
467.991
 10
549.97
 20
467.379
 10
550.578
 20
466.776
 10
551.194
 20
466.181
 10
551.817
 20
465.596
 10
552.449
 20
465.019
 10
553.088
 20
464.451
 10
553.734
 20
463.893
 10
554.389
 20
463.344
 10
555.051
 20
462.804
 10
555.721
 20
462.273
 10
556.399
 20
461.752
 10
557.086
 20
461.241
 10
557.779
 20
460.739
 10
558.481
 20
460.247
 10
559.191
 20
459.765
 10
559.909
 20
459.293
 10
560.634
 20
458.831
 10
561.368
 20
458.379
 10
562.11
 20
457.938
 10
562.859
 20
457.507
 10
563.617
 20
457.086
 10
564.383
 20
456.676
 10
565.157
 20
456.276
 10
565.939
 20
455.888
 10
566.729
 20
455.51
 10
567.528
 20
455.143
 10
568.334
 20
454.787
 10
569.149
 20
454.442
 10
569.972
 20
454.108
 10
570.803
 20
453.786
 10
571.642
 20
453.475
 10
572.49
 20
453.176
 10
573.346
 20
452.888
 10
574.21
 20
452.612
 10
575.083
 20
452.347
 10
575.964
 20
452.095
 10
576.853
 20
451.854
 10
577.751
 20
451.625
 10
578.657
 20
451.409
 10
579.571
 20
451.205
 10
580.494
 20
451.013
 10
581.425
 20
450.834
 10
582.365
 20
450.667
 10
583.314
 20
450.513
 10
584.27
 20
450.371
 10
585.236
 20
450.242
 10
585.239
 20
450.242
 10
842.354
 20
415.451
  0
LWPOLYLINE
  5
2e
  8
LAYER3
 90
     5
 10
614.638
 20
512.634
 10
602.277
 20
474.592
 10
599.424
 20
475.519
 10
611.785
 20
513.561
 10
614.638
 20
512.634
  0
LWPOLYLINE
  5
2f
  8
LAYER3
 90
     5
 10
695.926
 20
512.633
 10
683.566
 20
474.591
 10
680.712
 20
475.518
 10
693.073
 20
513.56
 10
695.926
 20
512.633
  0
LWPOLYLINE
  5
30
  8
LAYER3
 90
     5
 10
891.999
 20
504.362
 10
891.999
 20
454.362
 10
888.999
 20
454.362
 10
888.999
 20
504.362
 10
891.999
 20
504.362
  0
LWPOLYLINE
  5
31
  8
LAYER3
 90
     5
 10
1087.93
 20
513.56
 10
1100.29
 20
475.518
 10
1097.44
 20
474.591
 10
1085.08
 20
512.633
 10
1087.93
 20
513.56
  0
LWPOLYLINE
  5
32
  8
LAYER3
 90
     5
 10
1169.22
 20
513.561
 10
1181.58
 20
475.519
 10
1178.72
 20
474.592
 10
1166.36
 20
512.634
 10
1169.22
 20
513.561
  0
LWPOLYLINE
  5
33
  8
LAYER3
 90
    92
 10
844.569
 20
415.151
 10
890.499
 20
408.936
 10
1195.76
 20
450.242
 10
1196.73
 20
450.371
 10
1197.69
 20
450.513
 10
1198.63
 20
450.667
 10
1199.57
 20
450.834
 10
1200.51
 20
451.013
 10
1201.43
 20
451.205
 10
1202.34
 20
451.409
 10
1203.25
 20
451.625
 10
1204.15
 20
451.854
 10
1205.04
 20
452.095
 10
1205.92
 20
452.347
 10
1206.79
 20
452.612
 10
1207.65
 20
452.888
 10
1208.51
 20
453.176
 10
1209.36
 20
453.475
 10
1210.2
 20
453.786
 10
1211.03
 20
454.108
 10
1211.85
 20
454.442
 10
1212.67
 20
454.787
 10
1213.47
 20
455.143
 10
1214.27
 20
455.51
 10
1215.06
 20
455.888
 10
1215.84
 20
456.276
 10
1216.62
 20
456.676
 10
1217.38
 20
457.086
 10
1218.14
 20
457.507
 10
1218.89
 20
457.938
 10
1219.63
 20
458.379
 10
1220.37
 20
458.831
 10
1221.09
 20
459.293
 10
1221.81
 20
459.765
 10
1222.52
 20
460.247
 10
1223.22
 20
460.739
 10
1224.6
 20
461.752
 10
1225.28
 20
462.273
 10
1225.95
 20
462.804
 10
1227.27
 20
463.893
 10
1227.91
 20
464.451
 10
1228.55
 20
465.019
 10
1229.81
 20
466.181
 10
1231.03
 20
467.379
 10
1231.63
 20
467.991
 10
1232.81
 20
469.241
 10
1233.39
 20
469.878
 10
1234.52
 20
471.178
 10
1235.62
 20
472.51
 10
1236.16
 20
473.188
 10
1236.69
 20
473.873
 10
1237.73
 20
475.268
 10
1238.24
 20
475.977
 10
1239.24
 20
477.416
 10
1240.68
 20
479.63
 10
1241.6
 20
481.141
 10
1242.05
 20
481.906
 10
1242.93
 20
483.457
 10
1243.36
 20
484.243
 10
1243.78
 20
485.035
 10
1244.6
 20
486.637
 10
1245
 20
487.448
 10
1245.78
 20
489.087
 10
1246.53
 20
490.749
 10
1247.25
 20
492.434
 10
1247.6
 20
493.285
 10
1248.28
 20
495.003
 10
1248.93
 20
496.741
 10
1249.55
 20
498.5
 10
1250.14
 20
500.277
 10
1250.71
 20
502.073
 10
1251.25
 20
503.887
 10
1251.77
 20
505.718
 10
1252.25
 20
507.565
 10
1252.71
 20
509.428
 10
1253.14
 20
511.306
 10
1253.55
 20
513.197
 10
1253.93
 20
515.101
 10
1254.28
 20
517.019
 10
1254.61
 20
518.948
 10
1254.91
 20
520.888
 10
1255.19
 20
522.838
 10
1255.44
 20
524.798
 10
1255.66
 20
526.766
 10
1255.86
 20
528.742
 10
1256.03
 20
530.726
 10
1256.18
 20
532.716
 10
1256.3
 20
534.712
 10
1256.4
 20
536.713
 10
1256.44
 20
537.715
 10
1256.44
 20
587.715
 10
1083.17
 20
607.706
  0
LWPOLYLINE
  5
34
  8
LAYER3
 90
    91
 10
700.578
 20
203.212
 10
768.52
 20
194.019
 10
1074.75
 20
235.454
 10
1075.71
 20
235.595
 10
1076.66
 20
235.749
 10
1077.6
 20
235.916
 10
1078.53
 20
236.096
 10
1079.45
 20
236.287
 10
1080.36
 20
236.492
 10
1081.27
 20
236.708
 10
1082.17
 20
236.937
 10
1083.06
 20
237.177
 10
1083.94
 20
237.43
 10
1084.81
 20
237.694
 10
1085.67
 20
237.97
 10
1086.53
 20
238.258
 10
1087.38
 20
238.558
 10
1088.22
 20
238.869
 10
1089.05
 20
239.191
 10
1089.87
 20
239.525
 10
1090.69
 20
239.869
 10
1091.49
 20
240.225
 10
1092.29
 20
240.592
 10
1093.08
 20
240.97
 10
1093.86
 20
241.359
 10
1094.64
 20
241.759
 10
1095.4
 20
242.169
 10
1096.16
 20
242.589
 10
1096.91
 20
243.02
 10
1097.65
 20
243.462
 10
1098.39
 20
243.914
 10
1099.11
 20
244.376
 10
1099.83
 20
244.848
 10
1100.54
 20
245.33
 10
1101.94
 20
246.323
 10
1103.3
 20
247.356
 10
1103.97
 20
247.886
 10
1104.63
 20
248.426
 10
1105.29
 20
248.976
 10
1105.93
 20
249.534
 10
1106.57
 20
250.102
 10
1107.83
 20
251.264
 10
1109.05
 20
252.462
 10
1109.65
 20
253.074
 10
1110.83
 20
254.323
 10
1111.41
 20
254.961
 10
1111.98
 20
255.607
 10
1112.54
 20
256.261
 10
1113.64
 20
257.593
 10
1114.18
 20
258.271
 10
1114.71
 20
258.957
 10
1115.75
 20
260.351
 10
1116.26
 20
261.06
 10
1117.26
 20
262.5
 10
1118.7
 20
264.713
 10
1119.62
 20
266.224
 10
1120.07
 20
266.99
 10
1120.95
 20
268.541
 10
1121.38
 20
269.326
 10
1121.8
 20
270.118
 10
1122.62
 20
271.721
 10
1123.02
 20
272.531
 10
1123.8
 20
274.17
 10
1124.55
 20
275.832
 10
1125.27
 20
277.518
 10
1125.62
 20
278.368
 10
1126.3
 20
280.086
 10
1126.95
 20
281.824
 10
1127.87
 20
284.469
 10
1128.45
 20
286.256
 10
1129.01
 20
288.062
 10
1129.53
 20
289.884
 10
1130.03
 20
291.723
 10
1130.51
 20
293.578
 10
1130.95
 20
295.449
 10
1131.37
 20
297.333
 10
1131.76
 20
299.231
 10
1132.13
 20
301.142
 10
1132.47
 20
303.066
 10
1132.78
 20
305
 10
1133.07
 20
306.945
 10
1133.33
 20
308.9
 10
1133.57
 20
310.865
 10
1133.78
 20
312.837
 10
1133.97
 20
314.817
 10
1134.13
 20
316.804
 10
1134.27
 20
318.797
 10
1134.38
 20
320.796
 10
1134.46
 20
322.799
 10
1134.46
 20
372.799
 10
961.184
 20
392.79
  0
LWPOLYLINE
  5
35
  8
LAYER3
 90
     6
 10
957.21
 20
393.249
 10
783.935
 20
413.239
 10
769.421
 20
323.09
 10
767.619
 20
323.09
 10
753.105
 20
413.239
 10
579.829
 20
393.249
  0
LWPOLYLINE
  5
36
  8
LAYER3
 90
   109
 10
575.855
 20
392.79
 10
402.579
 20
372.799
 10
402.58
 20
372.798
 10
402.579
 20
372.795
 10
402.579
 20
322.799
 10
402.666
 20
320.796
 10
402.777
 20
318.797
 10
402.912
 20
316.804
 10
403.073
 20
314.817
 10
403.259
 20
312.837
 10
403.47
 20
310.865
 10
403.707
 20
308.9
 10
403.969
 20
306.945
 10
404.258
 20
305
 10
404.572
 20
303.066
 10
404.912
 20
301.142
 10
405.278
 20
299.231
 10
405.671
 20
297.333
 10
406.09
 20
295.449
 10
406.536
 20
293.578
 10
407.009
 20
291.723
 10
407.508
 20
289.884
 10
408.035
 20
288.062
 10
408.589
 20
286.256
 10
409.171
 20
284.469
 10
409.78
 20
282.701
 10
410.095
 20
281.824
 10
410.746
 20
280.086
 10
411.425
 20
278.368
 10
412.132
 20
276.672
 10
412.496
 20
275.832
 10
412.867
 20
274.998
 10
413.245
 20
274.17
 10
414.023
 20
272.531
 10
414.423
 20
271.721
 10
414.83
 20
270.916
 10
415.244
 20
270.118
 10
415.665
 20
269.326
 10
416.094
 20
268.541
 10
416.53
 20
267.762
 10
416.973
 20
266.99
 10
417.423
 20
266.224
 10
417.881
 20
265.465
 10
418.346
 20
264.713
 10
418.818
 20
263.968
 10
419.298
 20
263.23
 10
419.785
 20
262.5
 10
420.279
 20
261.776
 10
420.781
 20
261.06
 10
421.291
 20
260.351
 10
421.808
 20
259.65
 10
422.332
 20
258.957
 10
422.864
 20
258.271
 10
423.403
 20
257.593
 10
423.95
 20
256.923
 10
424.505
 20
256.261
 10
425.067
 20
255.607
 10
425.637
 20
254.961
 10
426.214
 20
254.323
 10
426.799
 20
253.694
 10
427.392
 20
253.074
 10
427.992
 20
252.462
 10
428.6
 20
251.859
 10
429.215
 20
251.264
 10
429.839
 20
250.678
 10
430.47
 20
250.102
 10
431.109
 20
249.534
 10
431.756
 20
248.976
 10
432.41
 20
248.426
 10
433.073
 20
247.886
 10
433.743
 20
247.356
 10
434.421
 20
246.835
 10
435.107
 20
246.323
 10
435.801
 20
245.822
 10
436.503
 20
245.33
 10
437.212
 20
244.848
 10
437.93
 20
244.376
 10
438.656
 20
243.914
 10
439.39
 20
243.462
 10
440.131
 20
243.02
 10
440.881
 20
242.589
 10
441.639
 20
242.169
 10
442.405
 20
241.759
 10
443.179
 20
241.359
 10
443.961
 20
240.97
 10
444.751
 20
240.592
 10
445.549
 20
240.225
 10
446.356
 20
239.869
 10
447.17
 20
239.525
 10
447.993
 20
239.191
 10
448.824
 20
238.869
 10
449.664
 20
238.558
 10
450.511
 20
238.258
 10
451.367
 20
237.97
 10
452.232
 20
237.694
 10
453.104
 20
237.43
 10
453.985
 20
237.177
 10
454.874
 20
236.937
 10
455.772
 20
236.708
 10
456.678
 20
236.492
 10
457.593
 20
236.287
 10
458.516
 20
236.096
 10
459.447
 20
235.916
 10
460.387
 20
235.749
 10
461.335
 20
235.595
 10
462.292
 20
235.454
 10
463.257
 20
235.325
 10
463.261
 20
235.325
 10
696.624
 20
203.747
  0
LWPOLYLINE
  5
37
  8
LAYER3
 90
     5
 10
492.659
 20
297.718
 10
480.298
 20
259.676
 10
477.445
 20
260.603
 10
489.806
 20
298.645
 10
492.659
 20
297.718
  0
LWPOLYLINE
  5
38
  8
LAYER3
 90
     5
 10
573.947
 20
297.717
 10
561.586
 20
259.674
 10
558.733
 20
260.601
 10
571.094
 20
298.644
 10
573.947
 20
297.717
  0
LWPOLYLINE
  5
39
  8
LAYER3
 90
     5
 10
770.02
 20
289.445
 10
770.02
 20
239.444
 10
767.02
 20
239.444
 10
767.02
 20
289.445
 10
770.02
 20
289.445
  0
LWPOLYLINE
  5
3a
  8
LAYER3
 90
     5
 10
965.947
 20
298.644
 10
978.307
 20
260.601
 10
975.454
 20
259.674
 10
963.093
 20
297.717
 10
965.947
 20
298.644
  0
LWPOLYLINE
  5
3b
  8
LAYER3
 90
     5
 10
1047.24
 20
298.645
 10
1059.6
 20
260.603
 10
1056.74
 20
259.676
 10
1044.38
 20
297.718
 10
1047.24
 20
298.645
  0
LWPOLYLINE
  5
3c
  8
LAYER6
 90
   111
 10
284.781
 20
199.755
 10
276.039
 20
199.755
 10
276.039
 20
199.754
 10
276.14
 20
198.257
 10
276.362
 20
196.967
 10
276.691
 20
195.873
 10
277.112
 20
194.961
 10
277.609
 20
194.219
 10
278.167
 20
193.635
 10
278.772
 20
193.196
 10
279.408
 20
192.888
 10
280.06
 20
192.7
 10
280.712
 20
192.619
 10
304.697
 20
191.982
 10
320.488
 20
191.321
 10
331.549
 20
190.689
 10
340.223
 20
190.062
 10
346.905
 20
189.475
 10
351.908
 20
188.963
 10
356.614
 20
188.412
 10
359.957
 20
187.973
 10
363.142
 20
187.51
 10
366.174
 20
187.024
 10
369.058
 20
186.514
 10
370.899
 20
186.16
 10
372.677
 20
185.796
 10
374.393
 20
185.42
 10
376.048
 20
185.033
 10
377.644
 20
184.635
 10
379.181
 20
184.226
 10
380.661
 20
183.805
 10
381.379
 20
183.59
 10
382.084
 20
183.372
 10
382.775
 20
183.151
 10
383.452
 20
182.927
 10
384.116
 20
182.7
 10
384.767
 20
182.471
 10
385.404
 20
182.238
 10
386.029
 20
182.002
 10
386.64
 20
181.763
 10
387.239
 20
181.521
 10
387.825
 20
181.276
 10
388.399
 20
181.028
 10
388.96
 20
180.777
 10
389.51
 20
180.522
 10
390.047
 20
180.265
 10
390.573
 20
180.004
 10
391.086
 20
179.74
 10
391.589
 20
179.473
 10
392.08
 20
179.203
 10
392.559
 20
178.929
 10
393.028
 20
178.653
 10
393.485
 20
178.373
 10
393.932
 20
178.09
 10
394.368
 20
177.803
 10
394.793
 20
177.513
 10
395.209
 20
177.22
 10
395.614
 20
176.923
 10
396.008
 20
176.624
 10
396.393
 20
176.32
 10
396.768
 20
176.014
 10
397.134
 20
175.704
 10
397.49
 20
175.39
 10
397.837
 20
175.073
 10
398.174
 20
174.753
 10
398.502
 20
174.429
 10
398.822
 20
174.102
 10
399.132
 20
173.771
 10
399.435
 20
173.437
 10
399.728
 20
173.099
 10
400.014
 20
172.758
 10
400.291
 20
172.413
 10
400.56
 20
172.065
 10
400.821
 20
171.713
 10
401.075
 20
171.357
 10
401.32
 20
170.998
 10
401.559
 20
170.635
 10
401.79
 20
170.269
 10
402.014
 20
169.898
 10
402.231
 20
169.525
 10
402.442
 20
169.147
 10
402.645
 20
168.766
 10
402.842
 20
168.381
 10
403.032
 20
167.992
 10
403.217
 20
167.599
 10
403.395
 20
167.203
 10
403.567
 20
166.803
 10
403.734
 20
166.399
 10
403.894
 20
165.991
 10
404.049
 20
165.58
 10
404.199
 20
165.164
 10
404.344
 20
164.745
 10
404.483
 20
164.322
 10
404.618
 20
163.895
 10
404.748
 20
163.464
 10
404.873
 20
163.029
 10
404.993
 20
162.59
 10
405.222
 20
161.7
 10
405.434
 20
160.795
 10
405.631
 20
159.873
 10
405.814
 20
158.935
 10
405.984
 20
157.98
 10
406.143
 20
157.009
 10
406.292
 20
156.022
 10
406.498
 20
154.509
 10
406.747
 20
152.433
 10
408.01
 20
139.756
 10
411.642
 20
146.97
 10
414.407
 20
152.687
 10
416.598
 20
157.409
 10
417.84
 20
160.187
  0
LWPOLYLINE
  5
3d
  8
LAYER6
 90
    46
 10
419.424
 20
163.86
 10
419.425
 20
163.861
 10
420.685
 20
166.919
 10
421.872
 20
169.933
 10
422.619
 20
171.918
 10
423.329
 20
173.881
 10
424.002
 20
175.824
 10
424.636
 20
177.743
 10
425.229
 20
179.64
 10
425.51
 20
180.58
 10
425.78
 20
181.513
 10
426.039
 20
182.44
 10
426.04
 20
182.441
 10
426.146
 20
183.403
 10
426.192
 20
184.35
 10
426.18
 20
185.281
 10
426.111
 20
186.194
 10
425.987
 20
187.089
 10
425.809
 20
187.963
 10
425.579
 20
188.816
 10
425.298
 20
189.647
 10
424.968
 20
190.455
 10
424.59
 20
191.237
 10
424.166
 20
191.993
 10
423.698
 20
192.722
 10
423.186
 20
193.422
 10
422.633
 20
194.093
 10
422.04
 20
194.732
 10
421.409
 20
195.339
 10
420.74
 20
195.913
 10
420.036
 20
196.451
 10
419.299
 20
196.954
 10
418.529
 20
197.42
 10
417.729
 20
197.847
 10
416.899
 20
198.234
 10
416.041
 20
198.58
 10
415.158
 20
198.884
 10
414.25
 20
199.145
 10
413.318
 20
199.361
 10
412.366
 20
199.532
 10
411.393
 20
199.655
 10
410.402
 20
199.73
 10
409.394
 20
199.755
 10
304.524
 20
199.755
 10
304.523
 20
199.755
 10
288.781
 20
199.755
  0
LWPOLYLINE
  5
3e
  8
LAYER6
 90
   111
 10
1045.39
 20
402.193
 10
1040.83
 20
402.193
 10
1040.93
 20
400.695
 10
1041.16
 20
399.405
 10
1041.48
 20
398.311
 10
1041.91
 20
397.399
 10
1042.4
 20
396.658
 10
1042.96
 20
396.073
 10
1043.57
 20
395.634
 10
1044.2
 20
395.327
 10
1044.85
 20
395.139
 10
1045.51
 20
395.057
 10
1069.49
 20
394.42
 10
1085.28
 20
393.759
 10
1096.34
 20
393.127
 10
1105.02
 20
392.5
 10
1111.7
 20
391.914
 10
1116.7
 20
391.402
 10
1121.41
 20
390.851
 10
1124.75
 20
390.411
 10
1127.94
 20
389.948
 10
1130.97
 20
389.462
 10
1133.85
 20
388.952
 10
1135.69
 20
388.598
 10
1137.47
 20
388.234
 10
1139.19
 20
387.858
 10
1140.84
 20
387.472
 10
1142.44
 20
387.073
 10
1143.97
 20
386.664
 10
1145.45
 20
386.243
 10
1146.88
 20
385.81
 10
1148.25
 20
385.365
 10
1148.91
 20
385.139
 10
1149.56
 20
384.909
 10
1150.2
 20
384.676
 10
1150.82
 20
384.44
 10
1151.43
 20
384.201
 10
1152.03
 20
383.959
 10
1152.62
 20
383.714
 10
1153.19
 20
383.466
 10
1153.75
 20
383.215
 10
1154.3
 20
382.961
 10
1154.84
 20
382.703
 10
1155.37
 20
382.442
 10
1155.88
 20
382.178
 10
1156.38
 20
381.911
 10
1156.87
 20
381.641
 10
1157.35
 20
381.368
 10
1157.82
 20
381.091
 10
1158.28
 20
380.811
 10
1158.73
 20
380.528
 10
1159.59
 20
379.951
 10
1160.41
 20
379.361
 10
1161.19
 20
378.758
 10
1161.93
 20
378.142
 10
1162.63
 20
377.511
 10
1162.97
 20
377.191
 10
1163.3
 20
376.867
 10
1163.62
 20
376.54
 10
1163.93
 20
376.209
 10
1164.23
 20
375.875
 10
1164.81
 20
375.196
 10
1165.35
 20
374.503
 10
1165.87
 20
373.795
 10
1166.35
 20
373.073
 10
1166.81
 20
372.336
 10
1167.03
 20
371.962
 10
1167.24
 20
371.585
 10
1167.64
 20
370.818
 10
1167.83
 20
370.43
 10
1168.19
 20
369.641
 10
1168.53
 20
368.837
 10
1168.69
 20
368.429
 10
1169.14
 20
367.183
 10
1169.28
 20
366.76
 10
1169.67
 20
365.467
 10
1169.79
 20
365.028
 10
1169.9
 20
364.585
 10
1170.02
 20
364.138
 10
1170.12
 20
363.687
 10
1170.23
 20
363.232
 10
1170.33
 20
362.773
 10
1170.61
 20
361.372
 10
1170.78
 20
360.418
 10
1170.94
 20
359.447
 10
1171.09
 20
358.459
 10
1171.29
 20
356.946
 10
1171.54
 20
354.87
 10
1172.8
 20
342.193
 10
1172.8
 20
342.194
 10
1172.87
 20
342.32
 10
1172.88
 20
342.341
 10
1173
 20
342.571
 10
1173.1
 20
342.781
 10
1173.14
 20
342.843
 10
1174.25
 20
345.036
 10
1174.26
 20
345.057
 10
1174.27
 20
345.077
 10
1174.28
 20
345.098
 10
1174.88
 20
346.284
 10
1174.89
 20
346.305
 10
1177.6
 20
351.795
 10
1177.61
 20
351.816
 10
1177.62
 20
351.836
 10
1178.65
 20
353.962
 10
1178.67
 20
354.002
 10
1180.88
 20
358.736
 10
1180.89
 20
358.756
 10
1181.77
 20
360.696
 10
1181.78
 20
360.716
 10
1182.63
 20
362.623
  0
LWPOLYLINE
  5
3f
  8
LAYER6
 90
   138
 10
1184.22
 20
366.298
 10
1185.48
 20
369.357
 10
1186.66
 20
372.371
 10
1187.41
 20
374.356
 10
1188.12
 20
376.32
 10
1188.8
 20
378.262
 10
1189.43
 20
380.182
 10
1190.02
 20
382.078
 10
1190.57
 20
383.951
 10
1190.83
 20
384.878
 10
1190.83
 20
384.879
 10
1190.94
 20
385.841
 10
1190.99
 20
386.788
 10
1190.97
 20
387.719
 10
1190.9
 20
388.632
 10
1190.78
 20
389.527
 10
1190.6
 20
390.401
 10
1190.37
 20
391.255
 10
1190.09
 20
392.086
 10
1189.76
 20
392.893
 10
1189.38
 20
393.675
 10
1188.96
 20
394.432
 10
1188.49
 20
395.16
 10
1187.98
 20
395.861
 10
1187.43
 20
396.531
 10
1186.83
 20
397.17
 10
1186.2
 20
397.777
 10
1185.53
 20
398.351
 10
1184.83
 20
398.89
 10
1184.09
 20
399.392
 10
1183.32
 20
399.858
 10
1182.52
 20
400.285
 10
1181.69
 20
400.672
 10
1180.83
 20
401.019
 10
1179.95
 20
401.323
 10
1179.04
 20
401.584
 10
1178.11
 20
401.8
 10
1177.16
 20
401.97
 10
1176.19
 20
402.093
 10
1175.2
 20
402.168
 10
1174.19
 20
402.193
 10
1069.32
 20
402.193
 10
1069.31
 20
402.193
 10
1069.3
 20
402.193
 10
1069.29
 20
402.193
 10
1069.28
 20
402.193
 10
1069.27
 20
402.193
 10
1069.26
 20
402.193
 10
1069.25
 20
402.193
 10
1069.24
 20
402.193
 10
1069.23
 20
402.193
 10
1069.22
 20
402.193
 10
1069.2
 20
402.193
 10
1069.19
 20
402.193
 10
1069.18
 20
402.193
 10
1069.17
 20
402.193
 10
1069.16
 20
402.193
 10
1069.15
 20
402.193
 10
1069.13
 20
402.193
 10
1069.1
 20
402.193
 10
1069.08
 20
402.193
 10
1069.07
 20
402.193
 10
1069.06
 20
402.193
 10
1069.05
 20
402.193
 10
1069.04
 20
402.193
 10
1069.03
 20
402.193
 10
1069.02
 20
402.193
 10
1069
 20
402.193
 10
1068.99
 20
402.193
 10
1068.98
 20
402.193
 10
1068.97
 20
402.193
 10
1068.96
 20
402.193
 10
1068.94
 20
402.193
 10
1068.92
 20
402.193
 10
1068.91
 20
402.193
 10
1068.9
 20
402.193
 10
1068.87
 20
402.193
 10
1068.86
 20
402.193
 10
1068.84
 20
402.193
 10
1068.82
 20
402.193
 10
1068.77
 20
402.193
 10
1068.76
 20
402.193
 10
1068.75
 20
402.193
 10
1068.74
 20
402.193
 10
1068.73
 20
402.193
 10
1068.72
 20
402.193
 10
1068.7
 20
402.193
 10
1068.58
 20
402.193
 10
1068.57
 20
402.193
 10
1068.55
 20
402.193
 10
1068.42
 20
402.193
 10
1068.41
 20
402.193
 10
1068.36
 20
402.193
 10
1068.33
 20
402.193
 10
1068.29
 20
402.193
 10
1067.8
 20
402.193
 10
1067.28
 20
402.193
 10
1067.18
 20
402.193
 10
1067.11
 20
402.193
 10
1067.09
 20
402.193
 10
1067.04
 20
402.193
 10
1067.01
 20
402.193
 10
1067
 20
402.193
 10
1066.99
 20
402.193
 10
1066.96
 20
402.193
 10
1066.95
 20
402.193
 10
1066.94
 20
402.193
 10
1066.92
 20
402.193
 10
1066.9
 20
402.193
 10
1066.87
 20
402.193
 10
1066.86
 20
402.193
 10
1066.85
 20
402.193
 10
1066.84
 20
402.193
 10
1066.82
 20
402.193
 10
1066.79
 20
402.193
 10
1066.78
 20
402.193
 10
1066.77
 20
402.193
 10
1066.76
 20
402.193
 10
1066.72
 20
402.193
 10
1066.71
 20
402.193
 10
1066.7
 20
402.193
 10
1066.69
 20
402.193
 10
1066.68
 20
402.193
 10
1066.67
 20
402.193
 10
1066.66
 20
402.193
 10
1066.65
 20
402.193
 10
1066.64
 20
402.193
 10
1066.63
 20
402.193
 10
1066.62
 20
402.193
 10
1066.61
 20
402.193
 10
1066.6
 20
402.193
 10
1066.59
 20
402.193
 10
1066.58
 20
402.193
 10
1066.57
 20
402.193
 10
1066.56
 20
402.193
 10
1066.55
 20
402.193
 10
1066.54
 20
402.193
 10
1049.39
 20
402.193
  0
LWPOLYLINE
  5
40
  8
LAYER4
 90
   118
 10
238.727
 20
188.787
 10
226.19
 20
195.35
 10
223.308
 20
195.35
 10
194.808
 20
180.369
 10
194.803
 20
179.489
 10
194.757
 20
178.614
 10
194.673
 20
177.745
 10
194.549
 20
176.882
 10
194.388
 20
176.025
 10
194.19
 20
175.176
 10
193.956
 20
174.334
 10
193.686
 20
173.501
 10
193.381
 20
172.677
 10
193.042
 20
171.863
 10
192.67
 20
171.059
 10
192.265
 20
170.266
 10
191.829
 20
169.484
 10
191.361
 20
168.714
 10
190.863
 20
167.957
 10
190.336
 20
167.213
 10
189.78
 20
166.483
 10
189.195
 20
165.767
 10
188.583
 20
165.066
 10
187.945
 20
164.381
 10
187.281
 20
163.711
 10
186.592
 20
163.059
 10
185.878
 20
162.423
 10
185.141
 20
161.806
 10
184.381
 20
161.207
 10
183.598
 20
160.627
 10
182.795
 20
160.067
 10
181.971
 20
159.527
 10
181.127
 20
159.008
 10
180.263
 20
158.51
 10
179.382
 20
158.034
 10
178.483
 20
157.581
 10
177.566
 20
157.151
 10
176.634
 20
156.745
 10
175.687
 20
156.363
 10
174.724
 20
156.007
 10
173.748
 20
155.675
 10
172.759
 20
155.37
 10
172.758
 20
155.37
 10
80.3877
 20
128.294
 10
79.5949
 20
128.046
 10
78.8034
 20
127.78
 10
78.0135
 20
127.497
 10
77.2256
 20
127.196
 10
76.4398
 20
126.879
 10
75.6563
 20
126.544
 10
74.8755
 20
126.193
 10
74.0977
 20
125.825
 10
73.3231
 20
125.442
 10
72.552
 20
125.042
 10
71.7847
 20
124.626
 10
71.0214
 20
124.194
 10
70.2624
 20
123.747
 10
69.5079
 20
123.285
 10
68.7583
 20
122.808
 10
68.0139
 20
122.315
 10
67.2748
 20
121.808
 10
66.5413
 20
121.287
 10
65.8138
 20
120.751
 10
65.0925
 20
120.201
 10
64.3776
 20
119.638
 10
63.6695
 20
119.06
 10
62.9684
 20
118.47
 10
62.2746
 20
117.865
 10
61.5883
 20
117.248
 10
60.9099
 20
116.618
 10
60.2395
 20
115.975
 10
59.5775
 20
115.32
 10
58.9241
 20
114.652
 10
58.2796
 20
113.972
 10
57.6443
 20
113.28
 10
57.0184
 20
112.577
 10
56.4023
 20
111.862
 10
55.7961
 20
111.136
 10
55.2002
 20
110.398
 10
54.6147
 20
109.65
 10
54.0402
 20
108.891
 10
53.4766
 20
108.121
 10
52.9244
 20
107.341
 10
52.3838
 20
106.551
 10
51.855
 20
105.751
 10
51.3385
 20
104.941
 10
50.8343
 20
104.122
 10
50.3428
 20
103.294
 10
49.8643
 20
102.456
 10
49.399
 20
101.609
 10
48.9472
 20
100.754
 10
48.5092
 20
99.8895
 10
48.0852
 20
99.0171
 10
47.6755
 20
98.1365
 10
47.2804
 20
97.248
 10
46.9001
 20
96.3517
 10
46.535
 20
95.4479
 10
46.1853
 20
94.5367
 10
45.8512
 20
93.6183
 10
45.5331
 20
92.693
 10
45.2311
 20
91.7609
 10
44.9456
 20
90.8222
 10
44.6769
 20
89.8771
 10
44.4252
 20
88.9259
 10
44.1907
 20
87.9686
 10
43.9738
 20
87.0056
 10
43.7748
 20
86.037
 10
43.5938
 20
85.063
 10
43.4312
 20
84.0838
 10
43.2873
 20
83.0996
 10
43.1622
 20
82.1107
 10
43.0564
 20
81.1171
 10
42.97
 20
80.1191
 10
42.9032
 20
79.1169
 10
42.8565
 20
78.1108
 10
42.8301
 20
77.1008
 10
42.8347
 20
39.8974
 10
119.284
 20
32.9138
  0
LWPOLYLINE
  5
41
  8
LAYER4
 90
   163
 10
123.267
 20
32.5499
 10
199.716
 20
25.5664
 10
199.716
 20
69.1468
 10
199.717
 20
69.2462
 10
199.72
 20
69.3456
 10
199.725
 20
69.4449
 10
199.732
 20
69.5441
 10
199.741
 20
69.6431
 10
199.751
 20
69.7419
 10
199.764
 20
69.8405
 10
199.779
 20
69.9388
 10
199.796
 20
70.0368
 10
199.814
 20
70.1344
 10
199.835
 20
70.2317
 10
199.858
 20
70.3285
 10
199.882
 20
70.4249
 10
199.908
 20
70.5207
 10
199.937
 20
70.6161
 10
199.967
 20
70.7108
 10
199.999
 20
70.8049
 10
200.033
 20
70.8983
 10
200.069
 20
70.9911
 10
200.106
 20
71.0831
 10
200.146
 20
71.1744
 10
200.187
 20
71.2649
 10
200.23
 20
71.3545
 10
200.275
 20
71.4433
 10
200.321
 20
71.5311
 10
200.369
 20
71.6181
 10
200.419
 20
71.704
 10
200.471
 20
71.7889
 10
200.524
 20
71.8728
 10
200.579
 20
71.9556
 10
200.636
 20
72.0372
 10
200.694
 20
72.1178
 10
200.754
 20
72.1972
 10
200.816
 20
72.2753
 10
200.879
 20
72.3523
 10
200.943
 20
72.4279
 10
201.009
 20
72.5023
 10
201.077
 20
72.5753
 10
201.145
 20
72.647
 10
201.216
 20
72.7173
 10
201.287
 20
72.7862
 10
201.36
 20
72.8536
 10
201.435
 20
72.9196
 10
201.51
 20
72.9841
 10
201.587
 20
73.0471
 10
201.666
 20
73.1085
 10
201.745
 20
73.1684
 10
201.825
 20
73.2267
 10
201.907
 20
73.2833
 10
201.99
 20
73.3383
 10
202.074
 20
73.3917
 10
202.159
 20
73.4434
 10
202.245
 20
73.4934
 10
202.332
 20
73.5417
 10
202.419
 20
73.5882
 10
202.508
 20
73.633
 10
202.598
 20
73.676
 10
202.688
 20
73.7172
 10
202.78
 20
73.7566
 10
202.872
 20
73.7942
 10
202.964
 20
73.8299
 10
203.058
 20
73.8638
 10
203.152
 20
73.8959
 10
203.247
 20
73.926
 10
203.342
 20
73.9543
 10
203.438
 20
73.9807
 10
203.534
 20
74.0051
 10
203.631
 20
74.0277
 10
203.728
 20
74.0483
 10
203.826
 20
74.0669
 10
203.924
 20
74.0836
 10
204.022
 20
74.0984
 10
204.121
 20
74.1112
 10
204.22
 20
74.1221
 10
204.319
 20
74.131
 10
204.418
 20
74.1379
 10
204.517
 20
74.1428
 10
204.617
 20
74.1458
 10
204.716
 20
74.1468
 10
244.9
 20
74.1468
 10
244.999
 20
74.1458
 10
245.099
 20
74.1428
 10
245.198
 20
74.1379
 10
245.297
 20
74.131
 10
245.396
 20
74.1221
 10
245.495
 20
74.1112
 10
245.594
 20
74.0984
 10
245.692
 20
74.0836
 10
245.79
 20
74.0669
 10
245.888
 20
74.0483
 10
245.985
 20
74.0277
 10
246.082
 20
74.0051
 10
246.178
 20
73.9807
 10
246.274
 20
73.9543
 10
246.369
 20
73.926
 10
246.464
 20
73.8959
 10
246.558
 20
73.8638
 10
246.652
 20
73.8299
 10
246.744
 20
73.7942
 10
246.836
 20
73.7566
 10
246.928
 20
73.7172
 10
247.018
 20
73.676
 10
247.108
 20
73.633
 10
247.196
 20
73.5882
 10
247.284
 20
73.5417
 10
247.371
 20
73.4934
 10
247.457
 20
73.4434
 10
247.542
 20
73.3917
 10
247.626
 20
73.3383
 10
247.709
 20
73.2833
 10
247.79
 20
73.2267
 10
247.871
 20
73.1684
 10
247.95
 20
73.1085
 10
248.029
 20
73.0471
 10
248.105
 20
72.9841
 10
248.181
 20
72.9196
 10
248.255
 20
72.8536
 10
248.328
 20
72.7862
 10
248.4
 20
72.7173
 10
248.471
 20
72.647
 10
248.539
 20
72.5753
 10
248.607
 20
72.5023
 10
248.673
 20
72.4279
 10
248.737
 20
72.3523
 10
248.8
 20
72.2753
 10
248.862
 20
72.1972
 10
248.922
 20
72.1178
 10
248.98
 20
72.0372
 10
249.092
 20
71.8728
 10
249.145
 20
71.7889
 10
249.197
 20
71.704
 10
249.247
 20
71.6181
 10
249.295
 20
71.5311
 10
249.341
 20
71.4433
 10
249.386
 20
71.3545
 10
249.429
 20
71.2649
 10
249.47
 20
71.1744
 10
249.51
 20
71.0831
 10
249.547
 20
70.9911
 10
249.583
 20
70.8983
 10
249.617
 20
70.8049
 10
249.649
 20
70.7108
 10
249.679
 20
70.6161
 10
249.708
 20
70.5207
 10
249.734
 20
70.4249
 10
249.758
 20
70.3285
 10
249.781
 20
70.2317
 10
249.801
 20
70.1344
 10
249.82
 20
70.0368
 10
249.837
 20
69.9388
 10
249.852
 20
69.8405
 10
249.864
 20
69.7419
 10
249.875
 20
69.6431
 10
249.884
 20
69.5441
 10
249.891
 20
69.4449
 10
249.896
 20
69.3456
 10
249.899
 20
69.2462
 10
249.9
 20
69.1468
 10
249.9
 20
25.5663
 10
326.35
 20
32.5499
  0
LWPOLYLINE
  5
42
  8
LAYER4
 90
   116
 10
330.333
 20
32.9138
 10
406.782
 20
39.8974
 10
406.787
 20
77.1008
 10
406.76
 20
78.1108
 10
406.714
 20
79.1169
 10
406.647
 20
80.1191
 10
406.561
 20
81.1171
 10
406.455
 20
82.1107
 10
406.33
 20
83.0996
 10
406.186
 20
84.0838
 10
406.023
 20
85.063
 10
405.842
 20
86.037
 10
405.643
 20
87.0056
 10
405.426
 20
87.9686
 10
405.192
 20
88.9259
 10
404.94
 20
89.8771
 10
404.672
 20
90.8222
 10
404.386
 20
91.7609
 10
404.084
 20
92.693
 10
403.766
 20
93.6183
 10
403.432
 20
94.5367
 10
403.082
 20
95.4479
 10
402.717
 20
96.3517
 10
402.337
 20
97.248
 10
401.942
 20
98.1365
 10
401.532
 20
99.0171
 10
401.108
 20
99.8895
 10
400.67
 20
100.754
 10
400.218
 20
101.609
 10
399.753
 20
102.456
 10
399.274
 20
103.294
 10
398.783
 20
104.122
 10
398.279
 20
104.941
 10
397.762
 20
105.751
 10
397.233
 20
106.551
 10
396.693
 20
107.341
 10
396.14
 20
108.121
 10
395.577
 20
108.891
 10
395.002
 20
109.65
 10
394.417
 20
110.398
 10
393.821
 20
111.136
 10
393.215
 20
111.862
 10
392.599
 20
112.577
 10
391.973
 20
113.28
 10
391.337
 20
113.972
 10
390.693
 20
114.652
 10
390.04
 20
115.32
 10
389.378
 20
115.975
 10
388.707
 20
116.618
 10
388.029
 20
117.248
 10
387.342
 20
117.865
 10
386.649
 20
118.47
 10
385.948
 20
119.06
 10
385.239
 20
119.638
 10
384.525
 20
120.201
 10
383.803
 20
120.751
 10
383.076
 20
121.287
 10
382.342
 20
121.808
 10
381.603
 20
122.315
 10
380.859
 20
122.808
 10
380.109
 20
123.285
 10
379.355
 20
123.747
 10
378.596
 20
124.194
 10
377.832
 20
124.626
 10
377.065
 20
125.042
 10
376.294
 20
125.442
 10
375.519
 20
125.825
 10
374.742
 20
126.193
 10
373.961
 20
126.544
 10
373.177
 20
126.879
 10
372.392
 20
127.196
 10
371.604
 20
127.497
 10
370.814
 20
127.78
 10
370.022
 20
128.046
 10
369.23
 20
128.294
 10
276.859
 20
155.37
 10
276.858
 20
155.37
 10
275.869
 20
155.675
 10
274.893
 20
156.007
 10
273.93
 20
156.363
 10
272.983
 20
156.745
 10
272.05
 20
157.151
 10
271.134
 20
157.581
 10
270.235
 20
158.034
 10
269.353
 20
158.51
 10
268.49
 20
159.008
 10
267.646
 20
159.527
 10
266.822
 20
160.067
 10
266.018
 20
160.627
 10
265.236
 20
161.207
 10
264.476
 20
161.806
 10
263.739
 20
162.423
 10
263.025
 20
163.059
 10
262.336
 20
163.711
 10
261.672
 20
164.381
 10
261.033
 20
165.066
 10
260.422
 20
165.767
 10
259.837
 20
166.483
 10
259.281
 20
167.213
 10
258.753
 20
167.957
 10
258.255
 20
168.714
 10
257.788
 20
169.484
 10
257.351
 20
170.266
 10
256.946
 20
171.059
 10
256.574
 20
171.863
 10
256.236
 20
172.677
 10
255.931
 20
173.501
 10
255.661
 20
174.334
 10
255.426
 20
175.176
 10
255.228
 20
176.025
 10
255.067
 20
176.882
 10
254.944
 20
177.745
 10
254.859
 20
178.614
 10
254.814
 20
179.489
 10
254.808
 20
180.369
 10
242.271
 20
186.932
  0
LWPOLYLINE
  5
43
  8
LAYER4
 90
     5
 10
226.309
 20
130.239
 10
223.308
 20
130.239
 10
223.308
 20
180.351
 10
226.309
 20
180.351
 10
226.309
 20
130.239
  0
LWPOLYLINE
  5
44
  8
LAYER4
 90
     2
 10
87.5592
 20
105.101
 10
80.0395
 20
127.664
  0
LWPOLYLINE
  5
45
  8
LAYER4
 90
    49
 10
148.309
 20
106.601
 10
148.303
 20
106.503
 10
148.283
 20
106.407
 10
148.252
 20
106.314
 10
148.208
 20
106.226
 10
148.154
 20
106.145
 10
148.089
 20
106.071
 10
148.016
 20
106.006
 10
147.934
 20
105.952
 10
147.846
 20
105.908
 10
147.753
 20
105.877
 10
147.657
 20
105.858
 10
147.559
 20
105.851
 10
147.461
 20
105.858
 10
147.365
 20
105.877
 10
147.272
 20
105.908
 10
147.184
 20
105.952
 10
147.102
 20
106.006
 10
147.029
 20
106.071
 10
146.964
 20
106.145
 10
146.909
 20
106.226
 10
146.866
 20
106.314
 10
146.835
 20
106.407
 10
146.815
 20
106.503
 10
146.809
 20
106.601
 10
146.815
 20
106.699
 10
146.835
 20
106.795
 10
146.866
 20
106.888
 10
146.909
 20
106.976
 10
146.964
 20
107.058
 10
147.029
 20
107.132
 10
147.102
 20
107.196
 10
147.184
 20
107.251
 10
147.272
 20
107.294
 10
147.365
 20
107.326
 10
147.461
 20
107.345
 10
147.559
 20
107.351
 10
147.657
 20
107.345
 10
147.753
 20
107.326
 10
147.846
 20
107.294
 10
147.934
 20
107.251
 10
148.016
 20
107.196
 10
148.089
 20
107.132
 10
148.154
 20
107.058
 10
148.208
 20
106.976
 10
148.252
 20
106.888
 10
148.283
 20
106.795
 10
148.303
 20
106.699
 10
148.309
 20
106.601
  0
LWPOLYLINE
  5
46
  8
LAYER4
 90
     2
 10
235.308
 20
87.1016
 10
235.308
 20
75.1016
  0
LWPOLYLINE
  5
47
  8
LAYER4
 90
    49
 10
302.808
 20
106.601
 10
302.802
 20
106.503
 10
302.782
 20
106.407
 10
302.751
 20
106.314
 10
302.708
 20
106.226
 10
302.653
 20
106.145
 10
302.588
 20
106.071
 10
302.515
 20
106.006
 10
302.433
 20
105.952
 10
302.345
 20
105.908
 10
302.252
 20
105.877
 10
302.156
 20
105.858
 10
302.058
 20
105.851
 10
301.96
 20
105.858
 10
301.864
 20
105.877
 10
301.771
 20
105.908
 10
301.683
 20
105.952
 10
301.601
 20
106.006
 10
301.528
 20
106.071
 10
301.463
 20
106.145
 10
301.409
 20
106.226
 10
301.365
 20
106.314
 10
301.334
 20
106.407
 10
301.314
 20
106.503
 10
301.308
 20
106.601
 10
301.314
 20
106.699
 10
301.334
 20
106.795
 10
301.365
 20
106.888
 10
301.409
 20
106.976
 10
301.463
 20
107.058
 10
301.528
 20
107.132
 10
301.601
 20
107.196
 10
301.683
 20
107.251
 10
301.771
 20
107.294
 10
301.864
 20
107.326
 10
301.96
 20
107.345
 10
302.058
 20
107.351
 10
302.156
 20
107.345
 10
302.252
 20
107.326
 10
302.345
 20
107.294
 10
302.433
 20
107.251
 10
302.515
 20
107.196
 10
302.588
 20
107.132
 10
302.653
 20
107.058
 10
302.708
 20
106.976
 10
302.751
 20
106.888
 10
302.782
 20
106.795
 10
302.802
 20
106.699
 10
302.808
 20
106.601
  0
LWPOLYLINE
  5
48
  8
LAYER4
 90
     2
 10
362.058
 20
105.101
 10
369.578
 20
127.664
  0
LWPOLYLINE
  5
49
  8
LAYER8
 90
    49
 10
669.93
 20
49.7488
 10
669.924
 20
49.6509
 10
669.905
 20
49.5547
 10
669.873
 20
49.4618
 10
669.83
 20
49.3738
 10
669.775
 20
49.2923
 10
669.711
 20
49.2185
 10
669.637
 20
49.1538
 10
669.555
 20
49.0993
 10
669.467
 20
49.0559
 10
669.374
 20
49.0244
 10
669.278
 20
49.0053
 10
669.18
 20
48.9988
 10
669.082
 20
49.0053
 10
668.986
 20
49.0244
 10
668.893
 20
49.0559
 10
668.805
 20
49.0993
 10
668.724
 20
49.1538
 10
668.65
 20
49.2185
 10
668.585
 20
49.2923
 10
668.531
 20
49.3738
 10
668.487
 20
49.4618
 10
668.456
 20
49.5547
 10
668.437
 20
49.6509
 10
668.43
 20
49.7488
 10
668.437
 20
49.8467
 10
668.456
 20
49.943
 10
668.487
 20
50.0359
 10
668.531
 20
50.1238
 10
668.585
 20
50.2054
 10
668.65
 20
50.2792
 10
668.724
 20
50.3439
 10
668.805
 20
50.3984
 10
668.893
 20
50.4417
 10
668.986
 20
50.4733
 10
669.082
 20
50.4924
 10
669.18
 20
50.4988
 10
669.278
 20
50.4924
 10
669.374
 20
50.4733
 10
669.467
 20
50.4417
 10
669.555
 20
50.3984
 10
669.637
 20
50.3439
 10
669.711
 20
50.2792
 10
669.775
 20
50.2054
 10
669.83
 20
50.1238
 10
669.873
 20
50.0359
 10
669.905
 20
49.943
 10
669.924
 20
49.8467
 10
669.93
 20
49.7488
  0
LWPOLYLINE
  5
4a
  8
LAYER8
 90
   380
 10
1109.66
 20
194.352
 10
1108.71
 20
193.49
 10
1104.07
 20
189.375
 10
1100.49
 20
186.309
 10
1097.03
 20
183.438
 10
1094.51
 20
181.411
 10
1092.04
 20
179.49
 10
1089.62
 20
177.673
 10
1088.04
 20
176.519
 10
1086.48
 20
175.41
 10
1084.94
 20
174.345
 10
1083.43
 20
173.324
 10
1081.92
 20
172.347
 10
1080.44
 20
171.412
 10
1078.98
 20
170.52
 10
1077.53
 20
169.669
 10
1076.09
 20
168.86
 10
1075.38
 20
168.471
 10
1073.97
 20
167.723
 10
1072.57
 20
167.015
 10
1071.18
 20
166.346
 10
1070.49
 20
166.026
 10
1069.8
 20
165.716
 10
1068.43
 20
165.125
 10
1067.75
 20
164.843
 10
1066.4
 20
164.308
 10
1065.05
 20
163.81
 10
1064.38
 20
163.575
 10
1063.71
 20
163.349
 10
1063.04
 20
163.132
 10
1061.71
 20
162.725
 10
1060.38
 20
162.352
 10
1059.72
 20
162.179
 10
1059.06
 20
162.015
 10
1058.4
 20
161.859
 10
1057.74
 20
161.711
 10
1057.08
 20
161.572
 10
1056.42
 20
161.441
 10
1055.76
 20
161.319
 10
1055.1
 20
161.205
 10
1054.44
 20
161.099
 10
1053.78
 20
161.001
 10
1053.12
 20
160.911
 10
1052.46
 20
160.829
 10
1051.8
 20
160.754
 10
1051.14
 20
160.688
 10
1050.47
 20
160.629
 10
1049.81
 20
160.578
 10
1049.15
 20
160.535
 10
1048.48
 20
160.499
 10
1047.81
 20
160.471
 10
1047.15
 20
160.45
 10
1046.48
 20
160.436
 10
1045.81
 20
160.43
 10
1045.14
 20
160.431
 10
1044.46
 20
160.439
 10
1043.79
 20
160.454
 10
1043.11
 20
160.477
 10
1042.43
 20
160.506
 10
1041.75
 20
160.542
 10
1040.37
 20
160.634
 10
1038.99
 20
160.754
 10
1038.3
 20
160.823
 10
1036.9
 20
160.982
 10
1035.48
 20
161.165
 10
1034.06
 20
161.374
 10
1032.62
 20
161.607
 10
1031.16
 20
161.864
 10
1029.69
 20
162.145
 10
1028.2
 20
162.448
 10
1025.93
 20
162.944
 10
1023.62
 20
163.488
 10
1021.26
 20
164.079
 10
1018.03
 20
164.937
 10
1013.86
 20
166.114
 10
1007.74
 20
167.944
 10
976.866
 20
177.679
 10
961.934
 20
182.16
 10
961.935
 20
182.16
 10
957.707
 20
183.238
 10
950.771
 20
184.91
 10
943.972
 20
186.429
 10
937.307
 20
187.8
 10
930.774
 20
189.026
 10
925.64
 20
189.906
 10
920.587
 20
190.699
 10
915.613
 20
191.407
 10
910.718
 20
192.032
 10
905.899
 20
192.576
 10
901.155
 20
193.041
 10
896.485
 20
193.43
 10
891.887
 20
193.745
 10
887.359
 20
193.988
 10
882.902
 20
194.162
 10
878.511
 20
194.267
 10
874.188
 20
194.307
 10
869.929
 20
194.284
 10
865.734
 20
194.2
 10
861.601
 20
194.057
 10
857.529
 20
193.857
 10
853.516
 20
193.603
 10
848.581
 20
193.212
 10
843.734
 20
192.744
 10
838.971
 20
192.202
 10
834.291
 20
191.592
 10
829.69
 20
190.917
 10
825.164
 20
190.181
 10
820.713
 20
189.39
 10
815.465
 20
188.373
 10
810.313
 20
187.288
 10
804.419
 20
185.948
 10
797.827
 20
184.332
 10
790.58
 20
182.426
 10
781.17
 20
179.785
 10
745.664
 20
169.196
 10
737.836
 20
167.027
 10
732.178
 20
165.568
 10
727.945
 20
164.551
 10
723.716
 20
163.609
 10
720.191
 20
162.886
 10
716.664
 20
162.224
 10
713.837
 20
161.741
 10
711.005
 20
161.303
 10
708.167
 20
160.911
 10
705.32
 20
160.567
 10
703.178
 20
160.343
 10
701.031
 20
160.147
 10
698.877
 20
159.983
 10
696.715
 20
159.849
 10
694.544
 20
159.748
 10
677.173
 20
160.839
 10
677.172
 20
160.839
 10
674.288
 20
161.123
 10
671.711
 20
161.421
 10
669.525
 20
161.711
 10
667.606
 20
161.999
 10
665.939
 20
162.278
 10
664.413
 20
162.559
 10
663.023
 20
162.839
 10
661.761
 20
163.116
 10
660.621
 20
163.387
 10
659.596
 20
163.649
 10
658.681
 20
163.9
 10
657.869
 20
164.136
 10
657.077
 20
164.38
 10
656.381
 20
164.608
 10
655.701
 20
164.842
 10
655.038
 20
165.084
 10
654.463
 20
165.304
 10
653.97
 20
165.502
 10
653.488
 20
165.704
 10
653.017
 20
165.911
 10
652.556
 20
166.123
 10
652.17
 20
166.307
 10
651.791
 20
166.495
 10
651.421
 20
166.687
 10
651.059
 20
166.882
 10
650.763
 20
167.048
 10
650.473
 20
167.215
 10
650.189
 20
167.385
 10
649.911
 20
167.558
 10
649.638
 20
167.733
 10
649.424
 20
167.875
 10
649.162
 20
168.055
 10
648.906
 20
168.237
 10
648.656
 20
168.422
 10
648.461
 20
168.571
 10
648.269
 20
168.723
 10
648.081
 20
168.876
 10
647.897
 20
169.03
 10
647.717
 20
169.187
 10
647.541
 20
169.345
 10
647.369
 20
169.505
 10
647.201
 20
169.666
 10
647.077
 20
169.788
 10
646.837
 20
170.036
 10
646.682
 20
170.203
 10
646.569
 20
170.329
 10
646.458
 20
170.457
 10
646.349
 20
170.585
 10
646.242
 20
170.715
 10
646.138
 20
170.845
 10
646.036
 20
170.977
 10
645.937
 20
171.109
 10
645.84
 20
171.243
 10
645.745
 20
171.377
 10
645.562
 20
171.649
 10
645.475
 20
171.787
 10
645.39
 20
171.925
 10
645.334
 20
172.018
 10
645.253
 20
172.159
 10
645.174
 20
172.3
 10
645.098
 20
172.442
 10
645.024
 20
172.586
 10
644.976
 20
172.682
 10
644.839
 20
172.973
 10
644.774
 20
173.121
 10
644.712
 20
173.269
 10
644.652
 20
173.419
 10
644.595
 20
173.569
 10
644.54
 20
173.721
 10
644.488
 20
173.873
 10
644.438
 20
174.027
 10
644.391
 20
174.182
 10
644.361
 20
174.286
 10
644.318
 20
174.442
 10
644.278
 20
174.6
 10
644.24
 20
174.759
 10
644.216
 20
174.865
 10
644.182
 20
175.026
 10
644.132
 20
175.296
 10
644.106
 20
175.46
 10
644.082
 20
175.625
 10
644.06
 20
175.791
 10
644.042
 20
175.958
 10
644.031
 20
176.07
 10
644.017
 20
176.239
 10
644.005
 20
176.409
 10
643.999
 20
176.523
 10
643.992
 20
176.695
 10
643.987
 20
176.868
 10
643.985
 20
177.042
 10
643.986
 20
177.217
 10
643.99
 20
177.394
 10
643.996
 20
177.572
 10
644.005
 20
177.751
 10
644.017
 20
177.931
 10
644.031
 20
178.112
 10
644.062
 20
178.417
 10
644.084
 20
178.601
 10
644.108
 20
178.786
 10
644.136
 20
178.973
 10
644.166
 20
179.161
 10
644.199
 20
179.35
 10
644.247
 20
179.604
 10
644.287
 20
179.796
 10
644.344
 20
180.054
 10
644.406
 20
180.314
 10
644.474
 20
180.576
 10
644.546
 20
180.841
 10
644.624
 20
181.107
 10
644.706
 20
181.376
 10
644.794
 20
181.647
 10
644.911
 20
181.989
 10
645.011
 20
182.265
 10
645.116
 20
182.543
 10
645.226
 20
182.823
 10
645.371
 20
183.177
 10
645.524
 20
183.534
 10
645.685
 20
183.895
 10
645.855
 20
184.259
 10
646.07
 20
184.701
 10
646.297
 20
185.148
 10
646.536
 20
185.6
 10
646.83
 20
186.135
 10
647.096
 20
186.598
 10
647.422
 20
187.146
 10
647.765
 20
187.701
 10
648.125
 20
188.264
 10
648.558
 20
188.915
 10
649.013
 20
189.577
 10
649.553
 20
190.333
 10
650.122
 20
191.101
 10
650.45
 20
191.533
 10
650.452
 20
191.535
 10
629.18
 20
191.535
 10
629.18
 20
194.536
 10
579.18
 20
194.536
 10
579.18
 20
191.535
 10
554.908
 20
191.561
 10
555.535
 20
191.064
 10
556.121
 20
190.562
 10
556.668
 20
190.054
 10
557.174
 20
189.54
 10
557.642
 20
189.022
 10
558.071
 20
188.498
 10
558.462
 20
187.97
 10
558.815
 20
187.437
 10
559.132
 20
186.9
 10
559.411
 20
186.36
 10
559.655
 20
185.816
 10
559.863
 20
185.27
 10
560.035
 20
184.72
 10
560.174
 20
184.168
 10
560.278
 20
183.614
 10
560.348
 20
183.057
 10
560.385
 20
182.5
 10
560.39
 20
181.941
 10
560.362
 20
181.38
 10
560.303
 20
180.82
 10
560.213
 20
180.258
 10
560.091
 20
179.697
 10
559.94
 20
179.136
 10
559.759
 20
178.575
 10
559.549
 20
178.015
 10
559.31
 20
177.456
 10
559.043
 20
176.899
 10
558.748
 20
176.343
 10
558.426
 20
175.789
 10
558.078
 20
175.238
 10
557.703
 20
174.689
 10
557.302
 20
174.143
 10
556.876
 20
173.6
 10
556.426
 20
173.061
 10
555.951
 20
172.525
 10
555.452
 20
171.994
 10
554.93
 20
171.466
 10
554.385
 20
170.944
 10
553.818
 20
170.426
 10
553.23
 20
169.914
 10
552.62
 20
169.407
 10
551.989
 20
168.907
 10
551.338
 20
168.412
 10
550.667
 20
167.924
 10
549.977
 20
167.442
 10
549.267
 20
166.968
 10
548.54
 20
166.501
 10
547.795
 20
166.042
 10
547.032
 20
165.59
 10
546.253
 20
165.147
 10
545.457
 20
164.713
 10
544.646
 20
164.287
 10
543.819
 20
163.87
 10
542.977
 20
163.463
 10
542.121
 20
163.066
 10
541.251
 20
162.678
 10
540.367
 20
162.301
 10
539.471
 20
161.935
 10
538.562
 20
161.58
 10
537.642
 20
161.236
 10
536.71
 20
160.903
 10
535.767
 20
160.582
 10
534.813
 20
160.274
 10
533.85
 20
159.977
 10
532.877
 20
159.694
 10
531.896
 20
159.424
 10
530.906
 20
159.167
 10
529.908
 20
158.923
 10
528.902
 20
158.694
 10
527.89
 20
158.478
 10
526.871
 20
158.278
 10
525.846
 20
158.092
 10
524.816
 20
157.921
 10
523.781
 20
157.766
 10
522.741
 20
157.626
 10
522.74
 20
157.626
 10
517.738
 20
157.06
 10
507.323
 20
155.747
 10
498.131
 20
154.422
 10
490.088
 20
153.118
 10
482.923
 20
151.827
 10
476.393
 20
150.533
 10
470.647
 20
149.287
 10
465.458
 20
148.067
 10
460.793
 20
146.882
 10
456.62
 20
145.744
 10
452.909
 20
144.661
 10
449.628
 20
143.643
 10
446.603
 20
142.647
 10
443.82
 20
141.677
 10
441.405
 20
140.79
 10
439.063
 20
139.884
 10
436.927
 20
139.015
 10
434.984
 20
138.185
 10
433.224
 20
137.397
 10
431.637
 20
136.655
 10
430.094
 20
135.902
 10
428.711
 20
135.197
 10
427.478
 20
134.542
 10
426.278
 20
133.88
 10
425.217
 20
133.271
 10
424.183
 20
132.656
 10
423.178
 20
132.035
 10
422.297
 20
131.47
 10
421.44
 20
130.9
 10
420.606
 20
130.325
 10
419.885
 20
129.81
 10
419.182
 20
129.29
 10
419.181
 20
129.29
 10
419.181
 20
111.332
  0
LWPOLYLINE
  5
4b
  8
LAYER8
 90
   138
 10
419.181
 20
107.332
 10
419.181
 20
88.3759
 10
424.465
 20
86.55
 10
425.42
 20
85.8156
 10
426.262
 20
85.0852
 10
426.997
 20
84.3585
 10
427.629
 20
83.6355
 10
428.165
 20
82.9161
 10
428.611
 20
82.2
 10
428.972
 20
81.4874
 10
429.255
 20
80.7779
 10
429.465
 20
80.0715
 10
429.608
 20
79.3682
 10
429.69
 20
78.6678
 10
429.716
 20
77.9701
 10
429.692
 20
77.2751
 10
429.625
 20
76.5827
 10
429.519
 20
75.8927
 10
429.382
 20
75.2051
 10
429.217
 20
74.5197
 10
429.033
 20
73.8364
 10
428.833
 20
73.1552
 10
428.204
 20
71.1225
 10
428.004
 20
70.4482
 10
427.817
 20
69.7754
 10
427.651
 20
69.104
 10
427.511
 20
68.4338
 10
427.402
 20
67.7647
 10
427.331
 20
67.0967
 10
427.303
 20
66.4296
 10
427.324
 20
65.7633
 10
427.4
 20
65.0978
 10
427.537
 20
64.4328
 10
427.537
 20
64.432
 10
427.701
 20
63.7987
 10
427.875
 20
63.1698
 10
428.059
 20
62.5453
 10
428.253
 20
61.9252
 10
428.456
 20
61.3095
 10
428.669
 20
60.6981
 10
428.891
 20
60.091
 10
429.123
 20
59.4883
 10
429.364
 20
58.89
 10
429.615
 20
58.296
 10
429.876
 20
57.7063
 10
430.145
 20
57.1209
 10
430.424
 20
56.5398
 10
430.713
 20
55.963
 10
431.011
 20
55.3905
 10
431.318
 20
54.8223
 10
431.634
 20
54.2583
 10
431.96
 20
53.6987
 10
432.294
 20
53.1432
 10
432.638
 20
52.592
 10
432.991
 20
52.0451
 10
433.353
 20
51.5024
 10
433.724
 20
50.9639
 10
434.104
 20
50.4296
 10
434.493
 20
49.8995
 10
434.892
 20
49.3736
 10
435.298
 20
48.8519
 10
435.714
 20
48.3344
 10
436.139
 20
47.821
 10
436.572
 20
47.3118
 10
437.014
 20
46.8068
 10
437.466
 20
46.3059
 10
437.925
 20
45.8092
 10
438.393
 20
45.3165
 10
438.87
 20
44.828
 10
439.356
 20
44.3436
 10
439.85
 20
43.8634
 10
440.353
 20
43.3872
 10
440.864
 20
42.9151
 10
441.384
 20
42.447
 10
441.912
 20
41.9831
 10
442.448
 20
41.5232
 10
442.993
 20
41.0673
 10
443.547
 20
40.6155
 10
444.108
 20
40.1678
 10
444.678
 20
39.724
 10
445.256
 20
39.2843
 10
445.842
 20
38.8486
 10
446.437
 20
38.4169
 10
447.039
 20
37.9892
 10
447.65
 20
37.5655
 10
448.269
 20
37.1458
 10
448.895
 20
36.73
 10
449.53
 20
36.3182
 10
450.173
 20
35.9104
 10
450.824
 20
35.5064
 10
451.482
 20
35.1065
 10
452.149
 20
34.7104
 10
452.823
 20
34.3183
 10
453.505
 20
33.9301
 10
454.195
 20
33.5458
 10
455.598
 20
32.7888
 10
457.031
 20
32.0474
 10
458.495
 20
31.3214
 10
459.99
 20
30.6107
 10
461.513
 20
29.9154
 10
463.067
 20
29.2354
 10
464.65
 20
28.5705
 10
466.262
 20
27.9207
 10
467.903
 20
27.286
 10
469.572
 20
26.6662
 10
471.269
 20
26.0614
 10
472.995
 20
25.4714
 10
474.748
 20
24.8961
 10
476.529
 20
24.3356
 10
479.251
 20
23.5222
 10
482.033
 20
22.7416
 10
484.875
 20
21.9934
 10
487.774
 20
21.2776
 10
490.732
 20
20.5937
 10
493.746
 20
19.9417
 10
496.816
 20
19.3212
 10
500.994
 20
18.5427
 10
505.267
 20
17.8194
 10
509.634
 20
17.1508
 10
514.091
 20
16.5363
 10
518.637
 20
15.9754
 10
524.442
 20
15.3489
 10
530.378
 20
14.8043
 10
536.442
 20
14.3405
 10
543.88
 20
13.8892
 10
551.487
 20
13.5509
 10
559.258
 20
13.324
 10
568.526
 20
13.1974
 10
568.526
 20
24.4279
 10
616.311
 20
24.4279
 10
616.311
 20
21.4275
 10
666.311
 20
21.4275
 10
666.311
 20
24.4279
 10
707.908
 20
24.4288
 10
733.827
 20
27.4299
 10
771.815
 20
31.2786
 10
808.852
 20
34.3869
 10
844.861
 20
36.779
  0
LWPOLYLINE
  5
4c
  8
LAYER8
 90
   168
 10
848.854
 20
37.005
 10
883.363
 20
38.6214
 10
916.027
 20
39.5779
 10
947.095
 20
39.9447
 10
976.547
 20
39.7781
 10
1004.65
 20
39.1268
 10
1031.12
 20
38.0482
 10
1056.24
 20
36.5828
 10
1079.74
 20
34.7981
 10
1102.18
 20
32.6985
 10
1123.05
 20
30.3771
 10
1222.67
 20
31.2492
 10
1223.57
 20
31.3256
 10
1224.46
 20
31.4246
 10
1225.37
 20
31.546
 10
1226.27
 20
31.6895
 10
1227.19
 20
31.8546
 10
1228.1
 20
32.041
 10
1229.02
 20
32.2484
 10
1229.93
 20
32.4764
 10
1230.85
 20
32.7245
 10
1231.77
 20
32.9924
 10
1232.68
 20
33.2798
 10
1233.59
 20
33.5863
 10
1234.5
 20
33.9115
 10
1235.41
 20
34.255
 10
1236.31
 20
34.6164
 10
1237.21
 20
34.9955
 10
1238.1
 20
35.3918
 10
1238.98
 20
35.8049
 10
1239.85
 20
36.2345
 10
1240.72
 20
36.6802
 10
1241.57
 20
37.1416
 10
1242.41
 20
37.6184
 10
1243.25
 20
38.1102
 10
1244.06
 20
38.6166
 10
1244.87
 20
39.1373
 10
1245.66
 20
39.6718
 10
1246.44
 20
40.2199
 10
1247.2
 20
40.781
 10
1247.95
 20
41.3549
 10
1248.67
 20
41.9413
 10
1249.38
 20
42.5396
 10
1250.07
 20
43.1496
 10
1250.74
 20
43.7708
 10
1251.39
 20
44.403
 10
1252.01
 20
45.0457
 10
1252.62
 20
45.6985
 10
1253.2
 20
46.3611
 10
1253.75
 20
47.0332
 10
1254.28
 20
47.7143
 10
1254.79
 20
48.404
 10
1255.26
 20
49.1021
 10
1255.71
 20
49.8081
 10
1256.13
 20
50.5217
 10
1256.52
 20
51.2424
 10
1256.89
 20
51.97
 10
1257.22
 20
52.704
 10
1257.51
 20
53.4441
 10
1257.78
 20
54.1898
 10
1258.01
 20
54.9409
 10
1258.21
 20
55.697
 10
1258.37
 20
56.4576
 10
1258.49
 20
57.2225
 10
1258.58
 20
57.9912
 10
1258.63
 20
58.7634
 10
1258.64
 20
59.5387
 10
1258.61
 20
60.3167
 10
1258.54
 20
61.0971
 10
1258.43
 20
61.8794
 10
1255.21
 20
78.1555
 10
1253.33
 20
88.5063
 10
1251.74
 20
98.1729
 10
1250.32
 20
107.846
 10
1248.96
 20
118.395
 10
1247.56
 20
130.991
 10
1246.14
 20
146.128
 10
1244.75
 20
164.425
 10
1243.28
 20
189.631
 10
1242.31
 20
211.993
 10
1241.52
 20
216.136
 10
1241.15
 20
217.938
 10
1240.73
 20
219.79
 10
1240.5
 20
220.727
 10
1240.25
 20
221.669
 10
1239.99
 20
222.612
 10
1239.71
 20
223.553
 10
1239.42
 20
224.49
 10
1239.1
 20
225.42
 10
1238.76
 20
226.34
 10
1238.4
 20
227.247
 10
1238.02
 20
228.139
 10
1237.61
 20
229.012
 10
1237.17
 20
229.864
 10
1236.71
 20
230.693
 10
1236.22
 20
231.495
 10
1235.7
 20
232.268
 10
1235.16
 20
233.008
 10
1234.57
 20
233.713
 10
1233.96
 20
234.381
 10
1233.31
 20
235.008
 10
1232.63
 20
235.591
 10
1231.91
 20
236.129
 10
1231.15
 20
236.617
 10
1230.35
 20
237.054
 10
1229.51
 20
237.437
 10
1228.63
 20
237.761
 10
1226.64
 20
238.236
 10
1224.65
 20
238.671
 10
1222.78
 20
239.05
 10
1220.92
 20
239.394
 10
1219.16
 20
239.689
 10
1217.41
 20
239.952
 10
1215.66
 20
240.184
 10
1213.93
 20
240.384
 10
1212.3
 20
240.545
 10
1210.67
 20
240.678
 10
1209.05
 20
240.782
 10
1207.43
 20
240.858
 10
1205.91
 20
240.904
 10
1204.39
 20
240.925
 10
1202.88
 20
240.92
 10
1201.37
 20
240.89
 10
1199.87
 20
240.835
 10
1198.37
 20
240.754
 10
1196.87
 20
240.648
 10
1195.38
 20
240.517
 10
1193.89
 20
240.36
 10
1192.4
 20
240.178
 10
1190.91
 20
239.971
 10
1189.42
 20
239.738
 10
1187.93
 20
239.479
 10
1186.45
 20
239.195
 10
1184.96
 20
238.886
 10
1183.39
 20
238.531
 10
1181.82
 20
238.147
 10
1180.25
 20
237.734
 10
1178.67
 20
237.293
 10
1177.1
 20
236.823
 10
1175.43
 20
236.296
 10
1173.77
 20
235.737
 10
1172.1
 20
235.146
 10
1170.34
 20
234.489
 10
1168.57
 20
233.797
 10
1166.71
 20
233.032
 10
1164.67
 20
232.149
 10
1162.71
 20
231.261
 10
1160.65
 20
230.286
 10
1158.49
 20
229.218
 10
1156.23
 20
228.051
 10
1153.87
 20
226.779
 10
1151.31
 20
225.341
 10
1148.82
 20
223.887
 10
1146.12
 20
222.254
 10
1143.12
 20
220.364
 10
1139.9
 20
218.255
 10
1138.56
 20
217.357
 10
1138.55
 20
217.352
 10
1138.37
 20
217.35
 10
1135.53
 20
215.408
 10
1133.7
 20
214.109
 10
1131.01
 20
212.156
 10
1128.42
 20
210.204
 10
1125.92
 20
208.259
 10
1123.5
 20
206.325
 10
1120.41
 20
203.775
 10
1116.74
 20
200.652
 10
1112.63
 20
197.033
  0
LWPOLYLINE
  5
4d
  8
LAYER8
 90
    49
 10
1158.06
 20
190.729
 10
1158.05
 20
190.631
 10
1158.03
 20
190.535
 10
1158
 20
190.442
 10
1157.96
 20
190.354
 10
1157.9
 20
190.272
 10
1157.84
 20
190.199
 10
1157.77
 20
190.134
 10
1157.68
 20
190.079
 10
1157.6
 20
190.036
 10
1157.5
 20
190.004
 10
1157.41
 20
189.985
 10
1157.31
 20
189.979
 10
1157.21
 20
189.985
 10
1157.12
 20
190.004
 10
1157.02
 20
190.036
 10
1156.93
 20
190.079
 10
1156.85
 20
190.134
 10
1156.78
 20
190.199
 10
1156.71
 20
190.272
 10
1156.66
 20
190.354
 10
1156.62
 20
190.442
 10
1156.59
 20
190.535
 10
1156.57
 20
190.631
 10
1156.56
 20
190.729
 10
1156.57
 20
190.827
 10
1156.59
 20
190.923
 10
1156.62
 20
191.016
 10
1156.66
 20
191.104
 10
1156.71
 20
191.185
 10
1156.78
 20
191.259
 10
1156.85
 20
191.324
 10
1156.93
 20
191.378
 10
1157.02
 20
191.422
 10
1157.12
 20
191.453
 10
1157.21
 20
191.472
 10
1157.31
 20
191.479
 10
1157.41
 20
191.472
 10
1157.5
 20
191.453
 10
1157.6
 20
191.422
 10
1157.68
 20
191.378
 10
1157.77
 20
191.324
 10
1157.84
 20
191.259
 10
1157.9
 20
191.185
 10
1157.96
 20
191.104
 10
1158
 20
191.016
 10
1158.03
 20
190.923
 10
1158.05
 20
190.827
 10
1158.06
 20
190.729
  0
LWPOLYLINE
  5
4e
  8
LAYER8
 90
     2
 10
1165.19
 20
191.467
 10
1138.91
 20
217.003
  0
LWPOLYLINE
  5
4f
  8
LAYER8
 90
     2
 10
1166.17
 20
156.786
 10
1204.04
 20
159.886
  0
LWPOLYLINE
  5
50
  8
LAYER8
 90
    83
 10
1106.28
 20
92.0856
 10
1115.58
 20
80.9141
 10
1116.02
 20
81.2924
 10
1116.46
 20
81.6782
 10
1116.9
 20
82.0712
 10
1117.75
 20
82.8789
 10
1118.57
 20
83.7144
 10
1118.97
 20
84.1424
 10
1119.36
 20
84.577
 10
1120.07
 20
85.4012
 10
1120.44
 20
85.854
 10
1121.16
 20
86.778
 10
1121.46
 20
87.1813
 10
1122.09
 20
88.0694
 10
1122.41
 20
88.5556
 10
1123
 20
89.4728
 10
1123.3
 20
89.974
 10
1123.84
 20
90.918
 10
1124.12
 20
91.4331
 10
1124.39
 20
91.9528
 10
1124.65
 20
92.477
 10
1124.9
 20
93.0054
 10
1125.11
 20
93.4617
 10
1125.35
 20
93.9977
 10
1125.76
 20
95.0033
 10
1125.97
 20
95.5499
 10
1126.34
 20
96.5742
 10
1126.52
 20
97.1303
 10
1126.67
 20
97.6093
 10
1126.84
 20
98.1708
 10
1127.14
 20
99.3018
 10
1127.28
 20
99.8709
 10
1127.39
 20
100.361
 10
1127.51
 20
100.934
 10
1127.62
 20
101.509
 10
1127.72
 20
102.086
 10
1127.81
 20
102.664
 10
1127.88
 20
103.161
 10
1128.01
 20
104.241
 10
1128.11
 20
105.408
 10
1128.15
 20
105.992
 10
1128.19
 20
107.163
 10
1128.19
 20
108.167
 10
1128.18
 20
108.752
 10
1128.14
 20
109.839
 10
1128.1
 20
110.423
 10
1128.05
 20
111.007
 10
1128
 20
111.506
 10
1127.88
 20
112.503
 10
1127.8
 20
113.083
 10
1127.71
 20
113.661
 10
1127.62
 20
114.155
 10
1127.51
 20
114.73
 10
1127.39
 20
115.303
 10
1127.28
 20
115.793
 10
1127.14
 20
116.362
 10
1126.84
 20
117.493
 10
1126.67
 20
118.055
 10
1126.31
 20
119.169
 10
1125.91
 20
120.271
 10
1125.73
 20
120.738
 10
1125.35
 20
121.666
 10
1124.87
 20
122.734
 10
1124.39
 20
123.711
 10
1124.12
 20
124.231
 10
1123.84
 20
124.746
 10
1123.55
 20
125.256
 10
1123.21
 20
125.834
 10
1122.95
 20
126.262
 10
1122.37
 20
127.178
 10
1122.09
 20
127.594
 10
1121.41
 20
128.55
 10
1121.06
 20
129.019
 10
1120.7
 20
129.483
 10
1119.96
 20
130.391
 10
1119.25
 20
131.212
 10
1118.45
 20
132.071
 10
1117.63
 20
132.902
 10
1116.77
 20
133.706
 10
1116.4
 20
134.041
 10
1115.96
 20
134.426
 10
1115.58
 20
134.75
 10
1106.28
 20
123.578
  0
LWPOLYLINE
  5
51
  8
LAYER8
 90
     6
 10
1103.72
 20
120.504
 10
1094.42
 20
109.332
 10
1069.42
 20
109.332
 10
1069.42
 20
106.332
 10
1094.42
 20
106.332
 10
1103.72
 20
95.1602
  0
LWPOLYLINE
  5
52
  8
LAYER8
 90
   198
 10
1015.92
 20
76.2581
 10
1033.02
 20
76.2585
 10
1033.22
 20
76.2621
 10
1033.42
 20
76.2693
 10
1033.62
 20
76.2801
 10
1033.91
 20
76.3031
 10
1034.11
 20
76.3229
 10
1034.31
 20
76.3463
 10
1034.41
 20
76.3593
 10
1034.61
 20
76.3881
 10
1034.8
 20
76.4204
 10
1034.9
 20
76.4379
 10
1035.1
 20
76.4755
 10
1035.19
 20
76.4957
 10
1035.29
 20
76.5167
 10
1035.39
 20
76.5386
 10
1035.48
 20
76.5614
 10
1035.68
 20
76.6096
 10
1035.77
 20
76.635
 10
1035.97
 20
76.6885
 10
1036.06
 20
76.7165
 10
1036.16
 20
76.7454
 10
1036.25
 20
76.7751
 10
1036.35
 20
76.8057
 10
1036.44
 20
76.8372
 10
1036.54
 20
76.8695
 10
1036.63
 20
76.9026
 10
1036.72
 20
76.9367
 10
1036.82
 20
76.9715
 10
1036.91
 20
77.0072
 10
1037.09
 20
77.0811
 10
1037.19
 20
77.1194
 10
1037.28
 20
77.1584
 10
1037.46
 20
77.239
 10
1037.64
 20
77.3228
 10
1037.82
 20
77.41
 10
1038
 20
77.5003
 10
1038.08
 20
77.5467
 10
1038.17
 20
77.5938
 10
1038.35
 20
77.6906
 10
1038.52
 20
77.7904
 10
1038.6
 20
77.8415
 10
1038.69
 20
77.8934
 10
1038.77
 20
77.946
 10
1038.86
 20
77.9994
 10
1038.94
 20
78.0535
 10
1039.03
 20
78.1084
 10
1039.27
 20
78.2776
 10
1039.43
 20
78.3941
 10
1039.67
 20
78.5743
 10
1039.83
 20
78.698
 10
1039.9
 20
78.7609
 10
1040.06
 20
78.8887
 10
1040.13
 20
78.9537
 10
1040.21
 20
79.0194
 10
1040.28
 20
79.0857
 10
1040.36
 20
79.1527
 10
1040.57
 20
79.3576
 10
1040.78
 20
79.5684
 10
1041.06
 20
79.8582
 10
1041.12
 20
79.9322
 10
1041.26
 20
80.082
 10
1041.32
 20
80.1578
 10
1041.45
 20
80.3111
 10
1041.69
 20
80.6244
 10
1041.93
 20
80.9465
 10
1041.98
 20
81.0283
 10
1042.1
 20
81.1935
 10
1042.2
 20
81.3606
 10
1042.26
 20
81.4449
 10
1042.61
 20
82.048
 10
1042.65
 20
82.1359
 10
1042.7
 20
82.2243
 10
1042.74
 20
82.313
 10
1042.79
 20
82.4022
 10
1042.87
 20
82.5817
 10
1042.92
 20
82.672
 10
1043.08
 20
83.037
 10
1043.15
 20
83.2217
 10
1043.19
 20
83.3145
 10
1043.22
 20
83.4076
 10
1043.26
 20
83.501
 10
1043.32
 20
83.6888
 10
1043.39
 20
83.8778
 10
1043.42
 20
83.9727
 10
1043.47
 20
84.1633
 10
1043.53
 20
84.355
 10
1043.55
 20
84.4512
 10
1043.58
 20
84.5476
 10
1043.6
 20
84.6442
 10
1043.65
 20
84.8381
 10
1043.75
 20
85.3261
 10
1043.78
 20
85.5225
 10
1043.8
 20
85.6209
 10
1043.82
 20
85.8182
 10
1043.84
 20
85.9169
 10
1043.89
 20
86.4124
 10
1043.89
 20
86.5117
 10
1043.91
 20
86.9096
 10
1043.92
 20
87.0091
 10
1043.92
 20
87.507
 10
1043.91
 20
87.6066
 10
1043.89
 20
88.0044
 10
1043.89
 20
88.1037
 10
1043.84
 20
88.5992
 10
1043.81
 20
88.7966
 10
1043.8
 20
88.8952
 10
1043.78
 20
88.9936
 10
1043.75
 20
89.19
 10
1043.65
 20
89.678
 10
1043.6
 20
89.8719
 10
1043.58
 20
89.9686
 10
1043.55
 20
90.065
 10
1043.53
 20
90.1611
 10
1043.47
 20
90.3528
 10
1043.42
 20
90.5434
 10
1043.39
 20
90.6383
 10
1043.32
 20
90.8273
 10
1043.26
 20
91.0151
 10
1043.22
 20
91.1085
 10
1043.19
 20
91.2017
 10
1043.15
 20
91.2945
 10
1043.08
 20
91.4791
 10
1042.92
 20
91.8441
 10
1042.87
 20
91.9344
 10
1042.79
 20
92.1139
 10
1042.74
 20
92.2031
 10
1042.7
 20
92.2918
 10
1042.65
 20
92.3802
 10
1042.61
 20
92.4681
 10
1042.26
 20
93.0712
 10
1042.2
 20
93.1555
 10
1042.1
 20
93.3227
 10
1041.98
 20
93.4878
 10
1041.93
 20
93.5697
 10
1041.75
 20
93.812
 10
1041.45
 20
94.2051
 10
1041.32
 20
94.3583
 10
1041.26
 20
94.4341
 10
1041.12
 20
94.5839
 10
1041.06
 20
94.6579
 10
1040.78
 20
94.9477
 10
1040.57
 20
95.1585
 10
1040.36
 20
95.3634
 10
1040.28
 20
95.4304
 10
1040.21
 20
95.4967
 10
1040.13
 20
95.5624
 10
1040.06
 20
95.6274
 10
1039.9
 20
95.7552
 10
1039.83
 20
95.8181
 10
1039.67
 20
95.9418
 10
1039.43
 20
96.122
 10
1039.27
 20
96.2385
 10
1039.03
 20
96.4077
 10
1038.94
 20
96.4626
 10
1038.86
 20
96.5167
 10
1038.77
 20
96.5701
 10
1038.69
 20
96.6227
 10
1038.6
 20
96.6746
 10
1038.52
 20
96.7257
 10
1038.35
 20
96.8255
 10
1038.26
 20
96.8743
 10
1038.08
 20
96.9694
 10
1038
 20
97.0158
 10
1037.82
 20
97.1061
 10
1037.64
 20
97.1933
 10
1037.46
 20
97.2771
 10
1037.28
 20
97.3577
 10
1037.19
 20
97.3967
 10
1037.09
 20
97.435
 10
1036.91
 20
97.5089
 10
1036.82
 20
97.5446
 10
1036.72
 20
97.5794
 10
1036.54
 20
97.6466
 10
1036.44
 20
97.6789
 10
1036.35
 20
97.7104
 10
1036.25
 20
97.741
 10
1036.16
 20
97.7707
 10
1036.06
 20
97.7996
 10
1035.97
 20
97.8276
 10
1035.77
 20
97.8811
 10
1035.68
 20
97.9065
 10
1035.48
 20
97.9547
 10
1035.39
 20
97.9775
 10
1035.29
 20
97.9994
 10
1035.19
 20
98.0204
 10
1035.1
 20
98.0406
 10
1034.9
 20
98.0782
 10
1034.61
 20
98.128
 10
1034.41
 20
98.1568
 10
1034.31
 20
98.1698
 10
1034.11
 20
98.1932
 10
1033.91
 20
98.213
 10
1033.62
 20
98.236
 10
1033.42
 20
98.2468
 10
1033.22
 20
98.254
 10
1033.02
 20
98.2576
 10
1015.92
 20
98.258
  0
LWPOLYLINE
  5
53
  8
LAYER8
 90
   221
 10
1011.92
 20
98.258
 10
994.816
 20
98.2576
 10
994.617
 20
98.254
 10
994.418
 20
98.2468
 10
994.219
 20
98.236
 10
994.12
 20
98.2292
 10
993.921
 20
98.213
 10
993.723
 20
98.1932
 10
993.525
 20
98.1698
 10
993.328
 20
98.1428
 10
993.131
 20
98.1123
 10
993.033
 20
98.0957
 10
992.935
 20
98.0782
 10
992.739
 20
98.0406
 10
992.544
 20
97.9994
 10
992.447
 20
97.9775
 10
992.35
 20
97.9547
 10
992.253
 20
97.931
 10
992.157
 20
97.9065
 10
992.061
 20
97.8811
 10
991.965
 20
97.8548
 10
991.773
 20
97.7996
 10
991.678
 20
97.7707
 10
991.488
 20
97.7104
 10
991.299
 20
97.6466
 10
991.112
 20
97.5794
 10
991.019
 20
97.5446
 10
990.833
 20
97.4723
 10
990.741
 20
97.435
 10
990.557
 20
97.3577
 10
990.466
 20
97.3178
 10
990.284
 20
97.2356
 10
990.194
 20
97.1933
 10
990.015
 20
97.1061
 10
989.926
 20
97.0614
 10
989.838
 20
97.0158
 10
989.662
 20
96.9223
 10
989.488
 20
96.8255
 10
989.315
 20
96.7257
 10
989.23
 20
96.6746
 10
989.06
 20
96.5701
 10
988.976
 20
96.5167
 10
988.893
 20
96.4626
 10
988.727
 20
96.352
 10
988.645
 20
96.2956
 10
988.482
 20
96.1806
 10
988.322
 20
96.0626
 10
988.164
 20
95.9418
 10
988.085
 20
95.8803
 10
988.007
 20
95.8181
 10
987.93
 20
95.7552
 10
987.777
 20
95.6274
 10
987.627
 20
95.4967
 10
987.479
 20
95.3634
 10
987.334
 20
95.2274
 10
987.262
 20
95.1585
 10
987.12
 20
95.0186
 10
987.05
 20
94.9477
 10
986.912
 20
94.804
 10
986.844
 20
94.7312
 10
986.71
 20
94.5839
 10
986.644
 20
94.5093
 10
986.514
 20
94.3583
 10
986.387
 20
94.2051
 10
986.263
 20
94.0495
 10
986.141
 20
93.8917
 10
986.081
 20
93.812
 10
985.964
 20
93.651
 10
985.85
 20
93.4878
 10
985.794
 20
93.4055
 10
985.684
 20
93.2393
 10
985.63
 20
93.1555
 10
985.577
 20
93.0712
 10
985.525
 20
92.9864
 10
985.423
 20
92.8155
 10
985.373
 20
92.7293
 10
985.324
 20
92.6427
 10
985.228
 20
92.4681
 10
985.181
 20
92.3802
 10
985.135
 20
92.2918
 10
985.045
 20
92.1139
 10
984.959
 20
91.9344
 10
984.917
 20
91.8441
 10
984.876
 20
91.7534
 10
984.836
 20
91.6623
 10
984.758
 20
91.4791
 10
984.683
 20
91.2945
 10
984.647
 20
91.2017
 10
984.577
 20
91.0151
 10
984.511
 20
90.8273
 10
984.448
 20
90.6383
 10
984.418
 20
90.5434
 10
984.36
 20
90.3528
 10
984.332
 20
90.2571
 10
984.28
 20
90.065
 10
984.255
 20
89.9686
 10
984.231
 20
89.8719
 10
984.185
 20
89.678
 10
984.143
 20
89.4834
 10
984.086
 20
89.19
 10
984.053
 20
88.9936
 10
984.038
 20
88.8952
 10
984.01
 20
88.698
 10
983.975
 20
88.4013
 10
983.956
 20
88.203
 10
983.948
 20
88.1037
 10
983.941
 20
88.0044
 10
983.929
 20
87.8056
 10
983.921
 20
87.6066
 10
983.916
 20
87.3079
 10
983.916
 20
87.2083
 10
983.921
 20
86.9096
 10
983.929
 20
86.7105
 10
983.941
 20
86.5117
 10
983.948
 20
86.4124
 10
983.956
 20
86.3131
 10
983.975
 20
86.1149
 10
983.998
 20
85.9169
 10
984.024
 20
85.7195
 10
984.038
 20
85.6209
 10
984.053
 20
85.5225
 10
984.086
 20
85.3261
 10
984.143
 20
85.0328
 10
984.185
 20
84.8381
 10
984.231
 20
84.6442
 10
984.255
 20
84.5476
 10
984.28
 20
84.4512
 10
984.306
 20
84.355
 10
984.36
 20
84.1633
 10
984.418
 20
83.9727
 10
984.448
 20
83.8778
 10
984.511
 20
83.6888
 10
984.577
 20
83.501
 10
984.647
 20
83.3145
 10
984.683
 20
83.2216
 10
984.758
 20
83.037
 10
984.836
 20
82.8538
 10
984.876
 20
82.7627
 10
984.917
 20
82.672
 10
984.959
 20
82.5817
 10
985.045
 20
82.4022
 10
985.135
 20
82.2243
 10
985.181
 20
82.1359
 10
985.228
 20
82.048
 10
985.324
 20
81.8735
 10
985.373
 20
81.7868
 10
985.423
 20
81.7007
 10
985.525
 20
81.5297
 10
985.577
 20
81.4449
 10
985.63
 20
81.3606
 10
985.684
 20
81.2768
 10
985.794
 20
81.1106
 10
985.85
 20
81.0283
 10
985.964
 20
80.8651
 10
986.081
 20
80.7041
 10
986.141
 20
80.6244
 10
986.263
 20
80.4666
 10
986.387
 20
80.3111
 10
986.514
 20
80.1578
 10
986.644
 20
80.0068
 10
986.71
 20
79.9322
 10
986.844
 20
79.7849
 10
986.912
 20
79.7121
 10
987.05
 20
79.5684
 10
987.12
 20
79.4975
 10
987.262
 20
79.3576
 10
987.334
 20
79.2887
 10
987.479
 20
79.1527
 10
987.627
 20
79.0194
 10
987.777
 20
78.8887
 10
987.93
 20
78.7609
 10
988.007
 20
78.698
 10
988.085
 20
78.6358
 10
988.164
 20
78.5743
 10
988.322
 20
78.4535
 10
988.482
 20
78.3355
 10
988.645
 20
78.2205
 10
988.727
 20
78.1641
 10
988.81
 20
78.1084
 10
988.976
 20
77.9994
 10
989.06
 20
77.946
 10
989.145
 20
77.8934
 10
989.315
 20
77.7904
 10
989.488
 20
77.6906
 10
989.662
 20
77.5938
 10
989.75
 20
77.5467
 10
989.926
 20
77.4547
 10
990.015
 20
77.41
 10
990.194
 20
77.3228
 10
990.284
 20
77.2805
 10
990.375
 20
77.239
 10
990.557
 20
77.1584
 10
990.741
 20
77.0811
 10
990.833
 20
77.0438
 10
991.019
 20
76.9715
 10
991.112
 20
76.9367
 10
991.299
 20
76.8695
 10
991.488
 20
76.8057
 10
991.583
 20
76.7751
 10
991.773
 20
76.7165
 10
991.869
 20
76.6885
 10
992.061
 20
76.635
 10
992.157
 20
76.6096
 10
992.253
 20
76.5851
 10
992.35
 20
76.5614
 10
992.447
 20
76.5386
 10
992.544
 20
76.5167
 10
992.739
 20
76.4755
 10
992.935
 20
76.4379
 10
993.033
 20
76.4204
 10
993.131
 20
76.4038
 10
993.328
 20
76.3733
 10
993.525
 20
76.3463
 10
993.723
 20
76.3229
 10
993.921
 20
76.3031
 10
994.12
 20
76.2869
 10
994.219
 20
76.2801
 10
994.418
 20
76.2693
 10
994.617
 20
76.2621
 10
994.816
 20
76.2585
 10
1011.92
 20
76.2581
  0
LWPOLYLINE
  5
54
  8
LAYER8
 90
     5
 10
994.181
 20
106.332
 10
994.181
 20
109.332
 10
1019.18
 20
109.332
 10
1019.18
 20
106.332
 10
994.181
 20
106.332
  0
LWPOLYLINE
  5
55
  8
LAYER8
 90
     5
 10
969.181
 20
106.332
 10
944.18
 20
106.332
 10
944.18
 20
109.332
 10
969.181
 20
109.332
 10
969.181
 20
106.332
  0
LWPOLYLINE
  5
56
  8
LAYER8
 90
   219
 10
940.915
 20
76.2581
 10
958.016
 20
76.2585
 10
958.215
 20
76.2621
 10
958.414
 20
76.2693
 10
958.613
 20
76.2801
 10
958.712
 20
76.2869
 10
958.91
 20
76.3031
 10
959.01
 20
76.3126
 10
959.109
 20
76.3229
 10
959.208
 20
76.3342
 10
959.405
 20
76.3593
 10
959.504
 20
76.3733
 10
959.701
 20
76.4038
 10
959.799
 20
76.4204
 10
959.897
 20
76.4379
 10
960.093
 20
76.4755
 10
960.19
 20
76.4957
 10
960.385
 20
76.5386
 10
960.482
 20
76.5614
 10
960.675
 20
76.6096
 10
960.771
 20
76.635
 10
960.963
 20
76.6885
 10
961.154
 20
76.7454
 10
961.249
 20
76.7751
 10
961.344
 20
76.8057
 10
961.438
 20
76.8372
 10
961.626
 20
76.9026
 10
961.72
 20
76.9367
 10
961.813
 20
76.9715
 10
961.999
 20
77.0438
 10
962.091
 20
77.0811
 10
962.183
 20
77.1194
 10
962.366
 20
77.1983
 10
962.457
 20
77.239
 10
962.547
 20
77.2805
 10
962.727
 20
77.366
 10
962.816
 20
77.41
 10
962.994
 20
77.5003
 10
963.17
 20
77.5938
 10
963.344
 20
77.6906
 10
963.516
 20
77.7904
 10
963.602
 20
77.8415
 10
963.687
 20
77.8934
 10
963.856
 20
77.9994
 10
963.939
 20
78.0535
 10
964.105
 20
78.1641
 10
964.187
 20
78.2205
 10
964.268
 20
78.2776
 10
964.43
 20
78.3941
 10
964.51
 20
78.4535
 10
964.668
 20
78.5743
 10
964.747
 20
78.6358
 10
964.978
 20
78.8245
 10
965.13
 20
78.9537
 10
965.205
 20
79.0194
 10
965.353
 20
79.1527
 10
965.498
 20
79.2887
 10
965.57
 20
79.3576
 10
965.712
 20
79.4975
 10
965.782
 20
79.5684
 10
965.92
 20
79.7121
 10
965.988
 20
79.7849
 10
966.122
 20
79.9322
 10
966.188
 20
80.0068
 10
966.253
 20
80.082
 10
966.445
 20
80.3111
 10
966.569
 20
80.4666
 10
966.691
 20
80.6244
 10
966.75
 20
80.7041
 10
966.867
 20
80.8651
 10
966.925
 20
80.9465
 10
966.982
 20
81.0283
 10
967.038
 20
81.1106
 10
967.148
 20
81.2768
 10
967.307
 20
81.5297
 10
967.409
 20
81.7007
 10
967.459
 20
81.7868
 10
967.508
 20
81.8735
 10
967.604
 20
82.048
 10
967.651
 20
82.1359
 10
967.697
 20
82.2243
 10
967.742
 20
82.313
 10
967.83
 20
82.4917
 10
967.956
 20
82.7627
 10
967.996
 20
82.8538
 10
968.074
 20
83.037
 10
968.149
 20
83.2217
 10
968.185
 20
83.3145
 10
968.22
 20
83.4076
 10
968.321
 20
83.6888
 10
968.384
 20
83.8778
 10
968.414
 20
83.9727
 10
968.472
 20
84.1633
 10
968.526
 20
84.355
 10
968.552
 20
84.4512
 10
968.577
 20
84.5476
 10
968.601
 20
84.6442
 10
968.647
 20
84.8381
 10
968.689
 20
85.0328
 10
968.727
 20
85.2282
 10
968.745
 20
85.3261
 10
968.794
 20
85.6209
 10
968.834
 20
85.9169
 10
968.857
 20
86.1149
 10
968.875
 20
86.3131
 10
968.891
 20
86.5117
 10
968.902
 20
86.7105
 10
968.91
 20
86.9096
 10
968.913
 20
87.0091
 10
968.916
 20
87.2083
 10
968.916
 20
87.3079
 10
968.913
 20
87.507
 10
968.91
 20
87.6066
 10
968.902
 20
87.8056
 10
968.891
 20
88.0044
 10
968.875
 20
88.203
 10
968.857
 20
88.4013
 10
968.834
 20
88.5992
 10
968.808
 20
88.7966
 10
968.794
 20
88.8952
 10
968.745
 20
89.19
 10
968.727
 20
89.2879
 10
968.689
 20
89.4834
 10
968.647
 20
89.678
 10
968.601
 20
89.8719
 10
968.577
 20
89.9686
 10
968.552
 20
90.065
 10
968.526
 20
90.1611
 10
968.472
 20
90.3528
 10
968.414
 20
90.5434
 10
968.384
 20
90.6383
 10
968.321
 20
90.8273
 10
968.22
 20
91.1085
 10
968.185
 20
91.2017
 10
968.149
 20
91.2945
 10
968.074
 20
91.4791
 10
967.996
 20
91.6623
 10
967.956
 20
91.7534
 10
967.83
 20
92.0244
 10
967.742
 20
92.2031
 10
967.697
 20
92.2918
 10
967.651
 20
92.3802
 10
967.604
 20
92.4681
 10
967.508
 20
92.6427
 10
967.459
 20
92.7293
 10
967.409
 20
92.8155
 10
967.307
 20
92.9864
 10
967.148
 20
93.2393
 10
967.038
 20
93.4055
 10
966.982
 20
93.4878
 10
966.925
 20
93.5697
 10
966.867
 20
93.651
 10
966.75
 20
93.812
 10
966.691
 20
93.8917
 10
966.569
 20
94.0495
 10
966.445
 20
94.2051
 10
966.253
 20
94.4341
 10
966.188
 20
94.5093
 10
966.122
 20
94.5839
 10
965.988
 20
94.7312
 10
965.92
 20
94.804
 10
965.782
 20
94.9477
 10
965.712
 20
95.0186
 10
965.57
 20
95.1585
 10
965.498
 20
95.2274
 10
965.353
 20
95.3634
 10
965.205
 20
95.4967
 10
965.13
 20
95.5624
 10
964.978
 20
95.6916
 10
964.747
 20
95.8803
 10
964.668
 20
95.9418
 10
964.51
 20
96.0626
 10
964.43
 20
96.122
 10
964.349
 20
96.1806
 10
964.187
 20
96.2956
 10
964.105
 20
96.352
 10
964.022
 20
96.4077
 10
963.856
 20
96.5167
 10
963.687
 20
96.6227
 10
963.602
 20
96.6746
 10
963.516
 20
96.7257
 10
963.344
 20
96.8255
 10
963.17
 20
96.9223
 10
962.994
 20
97.0158
 10
962.905
 20
97.0614
 10
962.727
 20
97.1501
 10
962.637
 20
97.1933
 10
962.457
 20
97.2771
 10
962.366
 20
97.3178
 10
962.183
 20
97.3967
 10
962.091
 20
97.435
 10
961.999
 20
97.4723
 10
961.906
 20
97.5089
 10
961.72
 20
97.5794
 10
961.532
 20
97.6466
 10
961.344
 20
97.7104
 10
961.154
 20
97.7707
 10
960.963
 20
97.8276
 10
960.771
 20
97.8811
 10
960.675
 20
97.9065
 10
960.482
 20
97.9547
 10
960.385
 20
97.9775
 10
960.287
 20
97.9994
 10
960.093
 20
98.0406
 10
959.897
 20
98.0782
 10
959.799
 20
98.0957
 10
959.701
 20
98.1123
 10
959.504
 20
98.1428
 10
959.405
 20
98.1568
 10
959.208
 20
98.1819
 10
959.109
 20
98.1932
 10
959.01
 20
98.2035
 10
958.91
 20
98.213
 10
958.712
 20
98.2292
 10
958.613
 20
98.236
 10
958.414
 20
98.2468
 10
958.215
 20
98.254
 10
958.016
 20
98.2576
 10
940.915
 20
98.258
  0
LWPOLYLINE
  5
57
  8
LAYER8
 90
   212
 10
936.915
 20
98.258
 10
919.816
 20
98.2576
 10
919.616
 20
98.254
 10
919.417
 20
98.2468
 10
919.218
 20
98.236
 10
919.119
 20
98.2292
 10
918.921
 20
98.213
 10
918.821
 20
98.2035
 10
918.722
 20
98.1932
 10
918.623
 20
98.1819
 10
918.426
 20
98.1568
 10
918.327
 20
98.1428
 10
918.229
 20
98.128
 10
918.032
 20
98.0957
 10
917.934
 20
98.0782
 10
917.836
 20
98.0598
 10
917.641
 20
98.0204
 10
917.544
 20
97.9994
 10
917.447
 20
97.9775
 10
917.35
 20
97.9547
 10
917.156
 20
97.9065
 10
917.06
 20
97.8811
 10
916.868
 20
97.8276
 10
916.677
 20
97.7707
 10
916.487
 20
97.7104
 10
916.393
 20
97.6789
 10
916.205
 20
97.6134
 10
916.018
 20
97.5446
 10
915.832
 20
97.4723
 10
915.74
 20
97.435
 10
915.648
 20
97.3967
 10
915.466
 20
97.3178
 10
915.284
 20
97.2356
 10
915.104
 20
97.1501
 10
915.015
 20
97.1061
 10
914.837
 20
97.0158
 10
914.749
 20
96.9694
 10
914.574
 20
96.8743
 10
914.487
 20
96.8255
 10
914.315
 20
96.7257
 10
914.23
 20
96.6746
 10
914.06
 20
96.5701
 10
913.976
 20
96.5167
 10
913.809
 20
96.4077
 10
913.727
 20
96.352
 10
913.563
 20
96.2385
 10
913.482
 20
96.1806
 10
913.321
 20
96.0626
 10
913.163
 20
95.9418
 10
913.007
 20
95.8181
 10
912.853
 20
95.6916
 10
912.777
 20
95.6274
 10
912.552
 20
95.4304
 10
912.333
 20
95.2274
 10
912.261
 20
95.1585
 10
912.12
 20
95.0186
 10
911.98
 20
94.8762
 10
911.844
 20
94.7312
 10
911.71
 20
94.5839
 10
911.644
 20
94.5093
 10
911.514
 20
94.3583
 10
911.387
 20
94.2051
 10
911.262
 20
94.0495
 10
911.141
 20
93.8917
 10
911.081
 20
93.812
 10
910.964
 20
93.651
 10
910.906
 20
93.5697
 10
910.738
 20
93.3227
 10
910.63
 20
93.1555
 10
910.577
 20
93.0712
 10
910.525
 20
92.9864
 10
910.372
 20
92.7293
 10
910.323
 20
92.6427
 10
910.227
 20
92.4681
 10
910.135
 20
92.2918
 10
910.045
 20
92.1139
 10
909.959
 20
91.9344
 10
909.917
 20
91.8441
 10
909.876
 20
91.7534
 10
909.836
 20
91.6623
 10
909.758
 20
91.4791
 10
909.683
 20
91.2945
 10
909.611
 20
91.1085
 10
909.577
 20
91.0151
 10
909.511
 20
90.8273
 10
909.417
 20
90.5434
 10
909.332
 20
90.2571
 10
909.279
 20
90.065
 10
909.255
 20
89.9686
 10
909.23
 20
89.8719
 10
909.185
 20
89.678
 10
909.143
 20
89.4834
 10
909.104
 20
89.2879
 10
909.086
 20
89.19
 10
909.053
 20
88.9936
 10
909.038
 20
88.8952
 10
909.01
 20
88.698
 10
908.997
 20
88.5992
 10
908.975
 20
88.4013
 10
908.956
 20
88.203
 10
908.948
 20
88.1037
 10
908.941
 20
88.0044
 10
908.929
 20
87.8056
 10
908.921
 20
87.6066
 10
908.918
 20
87.507
 10
908.915
 20
87.3079
 10
908.915
 20
87.2083
 10
908.918
 20
87.0091
 10
908.921
 20
86.9096
 10
908.929
 20
86.7105
 10
908.941
 20
86.5117
 10
908.948
 20
86.4124
 10
908.956
 20
86.3131
 10
908.975
 20
86.1149
 10
908.997
 20
85.9169
 10
909.038
 20
85.6209
 10
909.053
 20
85.5225
 10
909.086
 20
85.3261
 10
909.104
 20
85.2282
 10
909.143
 20
85.0328
 10
909.185
 20
84.8381
 10
909.23
 20
84.6442
 10
909.255
 20
84.5476
 10
909.279
 20
84.4512
 10
909.305
 20
84.355
 10
909.36
 20
84.1633
 10
909.417
 20
83.9727
 10
909.511
 20
83.6888
 10
909.577
 20
83.501
 10
909.611
 20
83.4076
 10
909.683
 20
83.2216
 10
909.758
 20
83.037
 10
909.836
 20
82.8538
 10
909.876
 20
82.7627
 10
909.917
 20
82.672
 10
909.959
 20
82.5817
 10
910.045
 20
82.4022
 10
910.135
 20
82.2243
 10
910.227
 20
82.048
 10
910.323
 20
81.8735
 10
910.372
 20
81.7868
 10
910.525
 20
81.5297
 10
910.577
 20
81.4449
 10
910.63
 20
81.3606
 10
910.738
 20
81.1935
 10
910.906
 20
80.9465
 10
910.964
 20
80.8651
 10
911.081
 20
80.7041
 10
911.141
 20
80.6244
 10
911.262
 20
80.4666
 10
911.387
 20
80.3111
 10
911.514
 20
80.1578
 10
911.644
 20
80.0068
 10
911.71
 20
79.9322
 10
911.844
 20
79.7849
 10
911.98
 20
79.6399
 10
912.12
 20
79.4975
 10
912.261
 20
79.3576
 10
912.333
 20
79.2887
 10
912.552
 20
79.0857
 10
912.777
 20
78.8887
 10
912.853
 20
78.8245
 10
913.007
 20
78.698
 10
913.163
 20
78.5743
 10
913.321
 20
78.4535
 10
913.482
 20
78.3355
 10
913.563
 20
78.2776
 10
913.809
 20
78.1084
 10
913.976
 20
77.9994
 10
914.06
 20
77.946
 10
914.145
 20
77.8934
 10
914.315
 20
77.7904
 10
914.487
 20
77.6906
 10
914.574
 20
77.6418
 10
914.749
 20
77.5467
 10
914.837
 20
77.5003
 10
914.926
 20
77.4547
 10
915.104
 20
77.366
 10
915.284
 20
77.2805
 10
915.466
 20
77.1983
 10
915.648
 20
77.1194
 10
915.74
 20
77.0811
 10
915.832
 20
77.0438
 10
916.018
 20
76.9715
 10
916.205
 20
76.9026
 10
916.299
 20
76.8695
 10
916.487
 20
76.8057
 10
916.582
 20
76.7751
 10
916.677
 20
76.7454
 10
916.868
 20
76.6885
 10
916.964
 20
76.6613
 10
917.156
 20
76.6096
 10
917.35
 20
76.5614
 10
917.447
 20
76.5386
 10
917.544
 20
76.5167
 10
917.641
 20
76.4957
 10
917.836
 20
76.4563
 10
917.934
 20
76.4379
 10
918.032
 20
76.4204
 10
918.229
 20
76.3881
 10
918.327
 20
76.3733
 10
918.426
 20
76.3593
 10
918.623
 20
76.3342
 10
918.722
 20
76.3229
 10
918.821
 20
76.3126
 10
918.921
 20
76.3031
 10
919.119
 20
76.2869
 10
919.218
 20
76.2801
 10
919.417
 20
76.2693
 10
919.616
 20
76.2621
 10
919.816
 20
76.2585
 10
936.915
 20
76.2581
  0
LWPOLYLINE
  5
58
  8
LAYER8
 90
     5
 10
919.179
 20
106.332
 10
894.18
 20
106.332
 10
894.18
 20
109.332
 10
919.179
 20
109.332
 10
919.179
 20
106.332
  0
LWPOLYLINE
  5
59
  8
LAYER8
 90
     5
 10
869.18
 20
106.332
 10
844.18
 20
106.332
 10
844.18
 20
109.332
 10
869.18
 20
109.332
 10
869.18
 20
106.332
  0
LWPOLYLINE
  5
5a
  8
LAYER8
 90
   224
 10
865.915
 20
76.2581
 10
883.015
 20
76.2585
 10
883.214
 20
76.2621
 10
883.413
 20
76.2693
 10
883.612
 20
76.2801
 10
883.811
 20
76.2946
 10
883.91
 20
76.3031
 10
884.108
 20
76.3229
 10
884.306
 20
76.3463
 10
884.405
 20
76.3593
 10
884.602
 20
76.3881
 10
884.7
 20
76.4038
 10
884.798
 20
76.4204
 10
884.896
 20
76.4379
 10
885.092
 20
76.4755
 10
885.19
 20
76.4957
 10
885.287
 20
76.5167
 10
885.384
 20
76.5386
 10
885.481
 20
76.5614
 10
885.578
 20
76.5851
 10
885.771
 20
76.635
 10
885.867
 20
76.6613
 10
886.058
 20
76.7165
 10
886.248
 20
76.7751
 10
886.438
 20
76.8372
 10
886.626
 20
76.9026
 10
886.813
 20
76.9715
 10
886.906
 20
77.0072
 10
887.09
 20
77.0811
 10
887.274
 20
77.1584
 10
887.365
 20
77.1983
 10
887.547
 20
77.2805
 10
887.727
 20
77.366
 10
887.905
 20
77.4547
 10
888.082
 20
77.5467
 10
888.257
 20
77.6418
 10
888.343
 20
77.6906
 10
888.515
 20
77.7904
 10
888.601
 20
77.8415
 10
888.771
 20
77.946
 10
888.855
 20
77.9994
 10
888.938
 20
78.0535
 10
889.104
 20
78.1641
 10
889.186
 20
78.2205
 10
889.267
 20
78.2776
 10
889.429
 20
78.3941
 10
889.509
 20
78.4535
 10
889.667
 20
78.5743
 10
889.746
 20
78.6358
 10
889.824
 20
78.698
 10
889.901
 20
78.7609
 10
890.054
 20
78.8887
 10
890.204
 20
79.0194
 10
890.352
 20
79.1527
 10
890.497
 20
79.2887
 10
890.569
 20
79.3576
 10
890.711
 20
79.4975
 10
890.781
 20
79.5684
 10
890.919
 20
79.7121
 10
890.987
 20
79.7849
 10
891.121
 20
79.9322
 10
891.187
 20
80.0068
 10
891.317
 20
80.1578
 10
891.444
 20
80.3111
 10
891.568
 20
80.4666
 10
891.69
 20
80.6244
 10
891.75
 20
80.7041
 10
891.867
 20
80.8651
 10
891.981
 20
81.0283
 10
892.037
 20
81.1106
 10
892.147
 20
81.2768
 10
892.201
 20
81.3606
 10
892.254
 20
81.4449
 10
892.306
 20
81.5297
 10
892.408
 20
81.7007
 10
892.458
 20
81.7868
 10
892.507
 20
81.8735
 10
892.603
 20
82.048
 10
892.65
 20
82.1359
 10
892.696
 20
82.2243
 10
892.741
 20
82.313
 10
892.829
 20
82.4917
 10
892.872
 20
82.5817
 10
892.914
 20
82.672
 10
892.955
 20
82.7627
 10
892.995
 20
82.8538
 10
893.073
 20
83.037
 10
893.148
 20
83.2217
 10
893.184
 20
83.3145
 10
893.254
 20
83.501
 10
893.32
 20
83.6888
 10
893.383
 20
83.8778
 10
893.413
 20
83.9727
 10
893.471
 20
84.1633
 10
893.525
 20
84.355
 10
893.551
 20
84.4512
 10
893.576
 20
84.5476
 10
893.6
 20
84.6442
 10
893.646
 20
84.8381
 10
893.688
 20
85.0328
 10
893.726
 20
85.2282
 10
893.744
 20
85.3261
 10
893.793
 20
85.6209
 10
893.821
 20
85.8182
 10
893.856
 20
86.1149
 10
893.875
 20
86.3131
 10
893.883
 20
86.4124
 10
893.89
 20
86.5117
 10
893.902
 20
86.7105
 10
893.91
 20
86.9096
 10
893.915
 20
87.2083
 10
893.915
 20
87.3079
 10
893.91
 20
87.6066
 10
893.902
 20
87.8056
 10
893.89
 20
88.0044
 10
893.883
 20
88.1037
 10
893.875
 20
88.203
 10
893.856
 20
88.4013
 10
893.833
 20
88.5992
 10
893.807
 20
88.7966
 10
893.793
 20
88.8952
 10
893.744
 20
89.19
 10
893.726
 20
89.2879
 10
893.688
 20
89.4834
 10
893.646
 20
89.678
 10
893.6
 20
89.8719
 10
893.576
 20
89.9686
 10
893.551
 20
90.065
 10
893.525
 20
90.1611
 10
893.471
 20
90.3528
 10
893.413
 20
90.5434
 10
893.383
 20
90.6383
 10
893.32
 20
90.8273
 10
893.254
 20
91.0151
 10
893.184
 20
91.2017
 10
893.148
 20
91.2945
 10
893.073
 20
91.4791
 10
892.995
 20
91.6623
 10
892.955
 20
91.7534
 10
892.914
 20
91.8441
 10
892.872
 20
91.9344
 10
892.829
 20
92.0244
 10
892.741
 20
92.2031
 10
892.696
 20
92.2918
 10
892.65
 20
92.3802
 10
892.603
 20
92.4681
 10
892.507
 20
92.6427
 10
892.458
 20
92.7293
 10
892.408
 20
92.8155
 10
892.306
 20
92.9864
 10
892.254
 20
93.0712
 10
892.201
 20
93.1555
 10
892.147
 20
93.2393
 10
892.037
 20
93.4055
 10
891.981
 20
93.4878
 10
891.867
 20
93.651
 10
891.75
 20
93.812
 10
891.69
 20
93.8917
 10
891.568
 20
94.0495
 10
891.444
 20
94.2051
 10
891.317
 20
94.3583
 10
891.187
 20
94.5093
 10
891.121
 20
94.5839
 10
890.987
 20
94.7312
 10
890.919
 20
94.804
 10
890.781
 20
94.9477
 10
890.711
 20
95.0186
 10
890.569
 20
95.1585
 10
890.497
 20
95.2274
 10
890.352
 20
95.3634
 10
890.204
 20
95.4967
 10
890.054
 20
95.6274
 10
889.901
 20
95.7552
 10
889.824
 20
95.8181
 10
889.746
 20
95.8803
 10
889.667
 20
95.9418
 10
889.509
 20
96.0626
 10
889.429
 20
96.122
 10
889.348
 20
96.1806
 10
889.186
 20
96.2956
 10
889.104
 20
96.352
 10
889.021
 20
96.4077
 10
888.855
 20
96.5167
 10
888.771
 20
96.5701
 10
888.601
 20
96.6746
 10
888.515
 20
96.7257
 10
888.343
 20
96.8255
 10
888.257
 20
96.8743
 10
888.082
 20
96.9694
 10
887.905
 20
97.0614
 10
887.727
 20
97.1501
 10
887.547
 20
97.2356
 10
887.456
 20
97.2771
 10
887.274
 20
97.3577
 10
887.09
 20
97.435
 10
886.906
 20
97.5089
 10
886.813
 20
97.5446
 10
886.626
 20
97.6134
 10
886.438
 20
97.6789
 10
886.343
 20
97.7104
 10
886.248
 20
97.741
 10
886.058
 20
97.7996
 10
885.867
 20
97.8548
 10
885.771
 20
97.8811
 10
885.578
 20
97.931
 10
885.481
 20
97.9547
 10
885.384
 20
97.9775
 10
885.287
 20
97.9994
 10
885.19
 20
98.0204
 10
885.092
 20
98.0406
 10
884.896
 20
98.0782
 10
884.798
 20
98.0957
 10
884.7
 20
98.1123
 10
884.602
 20
98.128
 10
884.405
 20
98.1568
 10
884.306
 20
98.1698
 10
884.108
 20
98.1932
 10
883.91
 20
98.213
 10
883.811
 20
98.2215
 10
883.612
 20
98.236
 10
883.413
 20
98.2468
 10
883.214
 20
98.254
 10
883.015
 20
98.2576
 10
865.915
 20
98.258
  0
LWPOLYLINE
  5
5b
  8
LAYER8
 90
   209
 10
861.915
 20
98.258
 10
844.816
 20
98.2576
 10
844.617
 20
98.254
 10
844.418
 20
98.2468
 10
844.219
 20
98.236
 10
844.119
 20
98.2292
 10
843.921
 20
98.213
 10
843.723
 20
98.1932
 10
843.525
 20
98.1698
 10
843.426
 20
98.1568
 10
843.327
 20
98.1428
 10
843.229
 20
98.128
 10
843.131
 20
98.1123
 10
843.033
 20
98.0957
 10
842.935
 20
98.0782
 10
842.739
 20
98.0406
 10
842.641
 20
98.0204
 10
842.544
 20
97.9994
 10
842.447
 20
97.9775
 10
842.35
 20
97.9547
 10
842.253
 20
97.931
 10
842.06
 20
97.8811
 10
841.868
 20
97.8276
 10
841.678
 20
97.7707
 10
841.488
 20
97.7104
 10
841.393
 20
97.6789
 10
841.205
 20
97.6134
 10
841.018
 20
97.5446
 10
840.925
 20
97.5089
 10
840.74
 20
97.435
 10
840.648
 20
97.3967
 10
840.466
 20
97.3178
 10
840.284
 20
97.2356
 10
840.104
 20
97.1501
 10
840.015
 20
97.1061
 10
839.837
 20
97.0158
 10
839.749
 20
96.9694
 10
839.574
 20
96.8743
 10
839.487
 20
96.8255
 10
839.315
 20
96.7257
 10
839.23
 20
96.6746
 10
839.06
 20
96.5701
 10
838.892
 20
96.4626
 10
838.809
 20
96.4077
 10
838.727
 20
96.352
 10
838.563
 20
96.2385
 10
838.482
 20
96.1806
 10
838.321
 20
96.0626
 10
838.163
 20
95.9418
 10
838.007
 20
95.8181
 10
837.853
 20
95.6916
 10
837.777
 20
95.6274
 10
837.552
 20
95.4304
 10
837.333
 20
95.2274
 10
837.261
 20
95.1585
 10
837.12
 20
95.0186
 10
836.98
 20
94.8762
 10
836.776
 20
94.6579
 10
836.578
 20
94.4341
 10
836.514
 20
94.3583
 10
836.387
 20
94.2051
 10
836.262
 20
94.0495
 10
836.141
 20
93.8917
 10
836.081
 20
93.812
 10
835.964
 20
93.651
 10
835.906
 20
93.5697
 10
835.738
 20
93.3227
 10
835.63
 20
93.1555
 10
835.577
 20
93.0712
 10
835.422
 20
92.8155
 10
835.372
 20
92.7293
 10
835.323
 20
92.6427
 10
835.227
 20
92.4681
 10
835.135
 20
92.2918
 10
835.045
 20
92.1139
 10
834.959
 20
91.9344
 10
834.917
 20
91.8441
 10
834.876
 20
91.7534
 10
834.836
 20
91.6623
 10
834.758
 20
91.4791
 10
834.683
 20
91.2945
 10
834.611
 20
91.1085
 10
834.577
 20
91.0151
 10
834.511
 20
90.8273
 10
834.417
 20
90.5434
 10
834.332
 20
90.2571
 10
834.279
 20
90.065
 10
834.255
 20
89.9686
 10
834.23
 20
89.8719
 10
834.185
 20
89.678
 10
834.143
 20
89.4834
 10
834.104
 20
89.2879
 10
834.086
 20
89.19
 10
834.053
 20
88.9936
 10
834.038
 20
88.8952
 10
834.01
 20
88.698
 10
833.997
 20
88.5992
 10
833.975
 20
88.4013
 10
833.956
 20
88.203
 10
833.948
 20
88.1037
 10
833.941
 20
88.0044
 10
833.929
 20
87.8056
 10
833.921
 20
87.6066
 10
833.918
 20
87.507
 10
833.915
 20
87.3079
 10
833.915
 20
87.2083
 10
833.918
 20
87.0091
 10
833.921
 20
86.9096
 10
833.929
 20
86.7105
 10
833.941
 20
86.5117
 10
833.948
 20
86.4124
 10
833.956
 20
86.3131
 10
833.975
 20
86.1149
 10
833.997
 20
85.9169
 10
834.023
 20
85.7195
 10
834.053
 20
85.5225
 10
834.086
 20
85.3261
 10
834.104
 20
85.2282
 10
834.143
 20
85.0328
 10
834.185
 20
84.8381
 10
834.23
 20
84.6442
 10
834.255
 20
84.5476
 10
834.279
 20
84.4512
 10
834.305
 20
84.355
 10
834.36
 20
84.1633
 10
834.417
 20
83.9727
 10
834.511
 20
83.6888
 10
834.577
 20
83.501
 10
834.611
 20
83.4076
 10
834.683
 20
83.2216
 10
834.758
 20
83.037
 10
834.836
 20
82.8538
 10
834.876
 20
82.7627
 10
834.917
 20
82.672
 10
834.959
 20
82.5817
 10
835.045
 20
82.4022
 10
835.135
 20
82.2243
 10
835.227
 20
82.048
 10
835.323
 20
81.8735
 10
835.372
 20
81.7868
 10
835.422
 20
81.7007
 10
835.577
 20
81.4449
 10
835.63
 20
81.3606
 10
835.738
 20
81.1935
 10
835.906
 20
80.9465
 10
835.964
 20
80.8651
 10
836.081
 20
80.7041
 10
836.141
 20
80.6244
 10
836.262
 20
80.4666
 10
836.387
 20
80.3111
 10
836.514
 20
80.1578
 10
836.578
 20
80.082
 10
836.776
 20
79.8582
 10
836.98
 20
79.6399
 10
837.12
 20
79.4975
 10
837.261
 20
79.3576
 10
837.333
 20
79.2887
 10
837.552
 20
79.0857
 10
837.777
 20
78.8887
 10
837.853
 20
78.8245
 10
838.007
 20
78.698
 10
838.163
 20
78.5743
 10
838.321
 20
78.4535
 10
838.482
 20
78.3355
 10
838.563
 20
78.2776
 10
838.809
 20
78.1084
 10
838.892
 20
78.0535
 10
839.06
 20
77.946
 10
839.145
 20
77.8934
 10
839.315
 20
77.7904
 10
839.487
 20
77.6906
 10
839.574
 20
77.6418
 10
839.749
 20
77.5467
 10
839.837
 20
77.5003
 10
839.926
 20
77.4547
 10
840.104
 20
77.366
 10
840.284
 20
77.2805
 10
840.466
 20
77.1983
 10
840.648
 20
77.1194
 10
840.74
 20
77.0811
 10
840.925
 20
77.0072
 10
841.018
 20
76.9715
 10
841.205
 20
76.9026
 10
841.393
 20
76.8372
 10
841.488
 20
76.8057
 10
841.678
 20
76.7454
 10
841.868
 20
76.6885
 10
842.06
 20
76.635
 10
842.253
 20
76.5851
 10
842.35
 20
76.5614
 10
842.447
 20
76.5386
 10
842.544
 20
76.5167
 10
842.641
 20
76.4957
 10
842.739
 20
76.4755
 10
842.935
 20
76.4379
 10
843.033
 20
76.4204
 10
843.131
 20
76.4038
 10
843.229
 20
76.3881
 10
843.327
 20
76.3733
 10
843.426
 20
76.3593
 10
843.525
 20
76.3463
 10
843.723
 20
76.3229
 10
843.921
 20
76.3031
 10
844.119
 20
76.2869
 10
844.219
 20
76.2801
 10
844.418
 20
76.2693
 10
844.617
 20
76.2621
 10
844.816
 20
76.2585
 10
861.915
 20
76.2581
  0
LWPOLYLINE
  5
5c
  8
LAYER8
 90
     5
 10
819.18
 20
106.332
 10
794.18
 20
106.332
 10
794.18
 20
109.332
 10
819.18
 20
109.332
 10
819.18
 20
106.332
  0
LWPOLYLINE
  5
5d
  8
LAYER8
 90
   209
 10
786.915
 20
98.258
 10
769.816
 20
98.2576
 10
769.617
 20
98.254
 10
769.418
 20
98.2468
 10
769.219
 20
98.236
 10
769.119
 20
98.2292
 10
768.921
 20
98.213
 10
768.723
 20
98.1932
 10
768.525
 20
98.1698
 10
768.426
 20
98.1568
 10
768.327
 20
98.1428
 10
768.229
 20
98.128
 10
768.131
 20
98.1123
 10
768.033
 20
98.0957
 10
767.935
 20
98.0782
 10
767.739
 20
98.0406
 10
767.641
 20
98.0204
 10
767.544
 20
97.9994
 10
767.447
 20
97.9775
 10
767.35
 20
97.9547
 10
767.253
 20
97.931
 10
767.06
 20
97.8811
 10
766.868
 20
97.8276
 10
766.678
 20
97.7707
 10
766.488
 20
97.7104
 10
766.393
 20
97.6789
 10
766.205
 20
97.6134
 10
766.018
 20
97.5446
 10
765.925
 20
97.5089
 10
765.74
 20
97.435
 10
765.648
 20
97.3967
 10
765.466
 20
97.3178
 10
765.284
 20
97.2356
 10
765.104
 20
97.1501
 10
765.015
 20
97.1061
 10
764.837
 20
97.0158
 10
764.749
 20
96.9694
 10
764.574
 20
96.8743
 10
764.487
 20
96.8255
 10
764.315
 20
96.7257
 10
764.23
 20
96.6746
 10
764.06
 20
96.5701
 10
763.892
 20
96.4626
 10
763.809
 20
96.4077
 10
763.727
 20
96.352
 10
763.563
 20
96.2385
 10
763.482
 20
96.1806
 10
763.321
 20
96.0626
 10
763.163
 20
95.9418
 10
763.007
 20
95.8181
 10
762.853
 20
95.6916
 10
762.777
 20
95.6274
 10
762.552
 20
95.4304
 10
762.333
 20
95.2274
 10
762.261
 20
95.1585
 10
762.12
 20
95.0186
 10
761.98
 20
94.8762
 10
761.776
 20
94.6579
 10
761.578
 20
94.4341
 10
761.514
 20
94.3583
 10
761.387
 20
94.2051
 10
761.262
 20
94.0495
 10
761.141
 20
93.8917
 10
761.081
 20
93.812
 10
760.964
 20
93.651
 10
760.906
 20
93.5697
 10
760.738
 20
93.3227
 10
760.63
 20
93.1555
 10
760.577
 20
93.0712
 10
760.422
 20
92.8155
 10
760.372
 20
92.7293
 10
760.323
 20
92.6427
 10
760.227
 20
92.4681
 10
760.135
 20
92.2918
 10
760.045
 20
92.1139
 10
759.959
 20
91.9344
 10
759.917
 20
91.8441
 10
759.876
 20
91.7534
 10
759.836
 20
91.6623
 10
759.758
 20
91.4791
 10
759.683
 20
91.2945
 10
759.611
 20
91.1085
 10
759.577
 20
91.0151
 10
759.511
 20
90.8273
 10
759.417
 20
90.5434
 10
759.332
 20
90.2571
 10
759.279
 20
90.065
 10
759.255
 20
89.9686
 10
759.23
 20
89.8719
 10
759.185
 20
89.678
 10
759.143
 20
89.4834
 10
759.104
 20
89.2879
 10
759.086
 20
89.19
 10
759.053
 20
88.9936
 10
759.038
 20
88.8952
 10
759.01
 20
88.698
 10
758.997
 20
88.5992
 10
758.975
 20
88.4013
 10
758.956
 20
88.203
 10
758.948
 20
88.1037
 10
758.941
 20
88.0044
 10
758.929
 20
87.8056
 10
758.921
 20
87.6066
 10
758.918
 20
87.507
 10
758.915
 20
87.3079
 10
758.915
 20
87.2083
 10
758.918
 20
87.0091
 10
758.921
 20
86.9096
 10
758.929
 20
86.7105
 10
758.941
 20
86.5117
 10
758.948
 20
86.4124
 10
758.956
 20
86.3131
 10
758.975
 20
86.1149
 10
758.997
 20
85.9169
 10
759.023
 20
85.7195
 10
759.053
 20
85.5225
 10
759.086
 20
85.3261
 10
759.104
 20
85.2282
 10
759.143
 20
85.0328
 10
759.185
 20
84.8381
 10
759.23
 20
84.6442
 10
759.255
 20
84.5476
 10
759.279
 20
84.4512
 10
759.305
 20
84.355
 10
759.36
 20
84.1633
 10
759.417
 20
83.9727
 10
759.511
 20
83.6888
 10
759.577
 20
83.501
 10
759.611
 20
83.4076
 10
759.683
 20
83.2216
 10
759.758
 20
83.037
 10
759.836
 20
82.8538
 10
759.876
 20
82.7627
 10
759.917
 20
82.672
 10
759.959
 20
82.5817
 10
760.045
 20
82.4022
 10
760.135
 20
82.2243
 10
760.227
 20
82.048
 10
760.323
 20
81.8735
 10
760.372
 20
81.7868
 10
760.422
 20
81.7007
 10
760.577
 20
81.4449
 10
760.63
 20
81.3606
 10
760.738
 20
81.1935
 10
760.906
 20
80.9465
 10
760.964
 20
80.8651
 10
761.081
 20
80.7041
 10
761.141
 20
80.6244
 10
761.262
 20
80.4666
 10
761.387
 20
80.3111
 10
761.514
 20
80.1578
 10
761.578
 20
80.082
 10
761.776
 20
79.8582
 10
761.98
 20
79.6399
 10
762.12
 20
79.4975
 10
762.261
 20
79.3576
 10
762.333
 20
79.2887
 10
762.552
 20
79.0857
 10
762.777
 20
78.8887
 10
762.853
 20
78.8245
 10
763.007
 20
78.698
 10
763.163
 20
78.5743
 10
763.321
 20
78.4535
 10
763.482
 20
78.3355
 10
763.563
 20
78.2776
 10
763.809
 20
78.1084
 10
763.892
 20
78.0535
 10
764.06
 20
77.946
 10
764.145
 20
77.8934
 10
764.315
 20
77.7904
 10
764.487
 20
77.6906
 10
764.574
 20
77.6418
 10
764.749
 20
77.5467
 10
764.837
 20
77.5003
 10
764.926
 20
77.4547
 10
765.104
 20
77.366
 10
765.284
 20
77.2805
 10
765.466
 20
77.1983
 10
765.648
 20
77.1194
 10
765.74
 20
77.0811
 10
765.925
 20
77.0072
 10
766.018
 20
76.9715
 10
766.205
 20
76.9026
 10
766.393
 20
76.8372
 10
766.488
 20
76.8057
 10
766.678
 20
76.7454
 10
766.868
 20
76.6885
 10
767.06
 20
76.635
 10
767.253
 20
76.5851
 10
767.35
 20
76.5614
 10
767.447
 20
76.5386
 10
767.544
 20
76.5167
 10
767.641
 20
76.4957
 10
767.739
 20
76.4755
 10
767.935
 20
76.4379
 10
768.033
 20
76.4204
 10
768.131
 20
76.4038
 10
768.229
 20
76.3881
 10
768.327
 20
76.3733
 10
768.426
 20
76.3593
 10
768.525
 20
76.3463
 10
768.723
 20
76.3229
 10
768.921
 20
76.3031
 10
769.119
 20
76.2869
 10
769.219
 20
76.2801
 10
769.418
 20
76.2693
 10
769.617
 20
76.2621
 10
769.816
 20
76.2585
 10
786.915
 20
76.2581
  0
LWPOLYLINE
  5
5e
  8
LAYER8
 90
   215
 10
790.915
 20
76.2581
 10
808.015
 20
76.2585
 10
808.214
 20
76.2621
 10
808.413
 20
76.2693
 10
808.612
 20
76.2801
 10
808.811
 20
76.2946
 10
808.91
 20
76.3031
 10
809.108
 20
76.3229
 10
809.306
 20
76.3463
 10
809.405
 20
76.3593
 10
809.602
 20
76.3881
 10
809.7
 20
76.4038
 10
809.798
 20
76.4204
 10
809.896
 20
76.4379
 10
810.092
 20
76.4755
 10
810.287
 20
76.5167
 10
810.384
 20
76.5386
 10
810.481
 20
76.5614
 10
810.578
 20
76.5851
 10
810.674
 20
76.6096
 10
810.867
 20
76.6613
 10
811.058
 20
76.7165
 10
811.153
 20
76.7454
 10
811.343
 20
76.8057
 10
811.532
 20
76.8695
 10
811.626
 20
76.9026
 10
811.812
 20
76.9715
 10
811.998
 20
77.0438
 10
812.09
 20
77.0811
 10
812.274
 20
77.1584
 10
812.365
 20
77.1983
 10
812.547
 20
77.2805
 10
812.727
 20
77.366
 10
812.905
 20
77.4547
 10
813.081
 20
77.5467
 10
813.257
 20
77.6418
 10
813.516
 20
77.7904
 10
813.601
 20
77.8415
 10
813.771
 20
77.946
 10
813.855
 20
77.9994
 10
813.938
 20
78.0535
 10
814.104
 20
78.1641
 10
814.268
 20
78.2776
 10
814.349
 20
78.3355
 10
814.509
 20
78.4535
 10
814.668
 20
78.5743
 10
814.824
 20
78.698
 10
814.978
 20
78.8245
 10
815.054
 20
78.8887
 10
815.204
 20
79.0194
 10
815.352
 20
79.1527
 10
815.497
 20
79.2887
 10
815.569
 20
79.3576
 10
815.711
 20
79.4975
 10
815.781
 20
79.5684
 10
815.919
 20
79.7121
 10
815.987
 20
79.7849
 10
816.121
 20
79.9322
 10
816.187
 20
80.0068
 10
816.317
 20
80.1578
 10
816.444
 20
80.3111
 10
816.569
 20
80.4666
 10
816.69
 20
80.6244
 10
816.75
 20
80.7041
 10
816.867
 20
80.8651
 10
816.981
 20
81.0283
 10
817.093
 20
81.1935
 10
817.201
 20
81.3606
 10
817.254
 20
81.4449
 10
817.306
 20
81.5297
 10
817.408
 20
81.7007
 10
817.458
 20
81.7868
 10
817.507
 20
81.8735
 10
817.603
 20
82.048
 10
817.65
 20
82.1359
 10
817.696
 20
82.2243
 10
817.786
 20
82.4022
 10
817.872
 20
82.5817
 10
817.914
 20
82.672
 10
817.955
 20
82.7627
 10
817.995
 20
82.8538
 10
818.073
 20
83.037
 10
818.148
 20
83.2217
 10
818.184
 20
83.3145
 10
818.254
 20
83.501
 10
818.32
 20
83.6888
 10
818.383
 20
83.8778
 10
818.413
 20
83.9727
 10
818.471
 20
84.1633
 10
818.525
 20
84.355
 10
818.551
 20
84.4512
 10
818.576
 20
84.5476
 10
818.6
 20
84.6442
 10
818.646
 20
84.8381
 10
818.688
 20
85.0328
 10
818.727
 20
85.2282
 10
818.778
 20
85.5225
 10
818.793
 20
85.6209
 10
818.821
 20
85.8182
 10
818.856
 20
86.1149
 10
818.875
 20
86.3131
 10
818.883
 20
86.4124
 10
818.89
 20
86.5117
 10
818.902
 20
86.7105
 10
818.91
 20
86.9096
 10
818.913
 20
87.0091
 10
818.915
 20
87.2083
 10
818.915
 20
87.3079
 10
818.913
 20
87.507
 10
818.91
 20
87.6066
 10
818.902
 20
87.8056
 10
818.89
 20
88.0044
 10
818.883
 20
88.1037
 10
818.875
 20
88.203
 10
818.856
 20
88.4013
 10
818.833
 20
88.5992
 10
818.807
 20
88.7966
 10
818.793
 20
88.8952
 10
818.778
 20
88.9936
 10
818.727
 20
89.2879
 10
818.688
 20
89.4834
 10
818.646
 20
89.678
 10
818.6
 20
89.8719
 10
818.576
 20
89.9686
 10
818.551
 20
90.065
 10
818.525
 20
90.1611
 10
818.471
 20
90.3528
 10
818.413
 20
90.5434
 10
818.383
 20
90.6383
 10
818.32
 20
90.8273
 10
818.254
 20
91.0151
 10
818.184
 20
91.2017
 10
818.148
 20
91.2945
 10
818.073
 20
91.4791
 10
817.995
 20
91.6623
 10
817.955
 20
91.7534
 10
817.914
 20
91.8441
 10
817.872
 20
91.9344
 10
817.786
 20
92.1139
 10
817.696
 20
92.2918
 10
817.65
 20
92.3802
 10
817.603
 20
92.4681
 10
817.507
 20
92.6427
 10
817.458
 20
92.7293
 10
817.408
 20
92.8155
 10
817.306
 20
92.9864
 10
817.254
 20
93.0712
 10
817.201
 20
93.1555
 10
817.093
 20
93.3227
 10
816.981
 20
93.4878
 10
816.867
 20
93.651
 10
816.75
 20
93.812
 10
816.69
 20
93.8917
 10
816.569
 20
94.0495
 10
816.444
 20
94.2051
 10
816.317
 20
94.3583
 10
816.187
 20
94.5093
 10
816.121
 20
94.5839
 10
815.987
 20
94.7312
 10
815.919
 20
94.804
 10
815.781
 20
94.9477
 10
815.711
 20
95.0186
 10
815.569
 20
95.1585
 10
815.497
 20
95.2274
 10
815.352
 20
95.3634
 10
815.204
 20
95.4967
 10
815.054
 20
95.6274
 10
814.978
 20
95.6916
 10
814.824
 20
95.8181
 10
814.668
 20
95.9418
 10
814.509
 20
96.0626
 10
814.349
 20
96.1806
 10
814.268
 20
96.2385
 10
814.104
 20
96.352
 10
814.021
 20
96.4077
 10
813.855
 20
96.5167
 10
813.771
 20
96.5701
 10
813.686
 20
96.6227
 10
813.516
 20
96.7257
 10
813.257
 20
96.8743
 10
813.081
 20
96.9694
 10
812.905
 20
97.0614
 10
812.727
 20
97.1501
 10
812.547
 20
97.2356
 10
812.456
 20
97.2771
 10
812.274
 20
97.3577
 10
812.09
 20
97.435
 10
811.998
 20
97.4723
 10
811.812
 20
97.5446
 10
811.626
 20
97.6134
 10
811.532
 20
97.6466
 10
811.343
 20
97.7104
 10
811.248
 20
97.741
 10
811.058
 20
97.7996
 10
810.867
 20
97.8548
 10
810.674
 20
97.9065
 10
810.578
 20
97.931
 10
810.481
 20
97.9547
 10
810.384
 20
97.9775
 10
810.287
 20
97.9994
 10
810.092
 20
98.0406
 10
809.896
 20
98.0782
 10
809.798
 20
98.0957
 10
809.7
 20
98.1123
 10
809.602
 20
98.128
 10
809.405
 20
98.1568
 10
809.306
 20
98.1698
 10
809.108
 20
98.1932
 10
808.91
 20
98.213
 10
808.811
 20
98.2215
 10
808.612
 20
98.236
 10
808.413
 20
98.2468
 10
808.214
 20
98.254
 10
808.015
 20
98.2576
 10
790.915
 20
98.258
  0
LWPOLYLINE
  5
5f
  8
LAYER8
 90
     5
 10
769.18
 20
106.332
 10
744.18
 20
106.332
 10
744.18
 20
109.332
 10
769.18
 20
109.332
 10
769.18
 20
106.332
  0
LWPOLYLINE
  5
60
  8
LAYER8
 90
   215
 10
715.915
 20
76.2581
 10
733.015
 20
76.2585
 10
733.214
 20
76.2621
 10
733.413
 20
76.2693
 10
733.612
 20
76.2801
 10
733.811
 20
76.2946
 10
733.91
 20
76.3031
 10
734.108
 20
76.3229
 10
734.306
 20
76.3463
 10
734.405
 20
76.3593
 10
734.602
 20
76.3881
 10
734.7
 20
76.4038
 10
734.798
 20
76.4204
 10
734.896
 20
76.4379
 10
735.092
 20
76.4755
 10
735.287
 20
76.5167
 10
735.384
 20
76.5386
 10
735.481
 20
76.5614
 10
735.578
 20
76.5851
 10
735.674
 20
76.6096
 10
735.867
 20
76.6613
 10
736.058
 20
76.7165
 10
736.153
 20
76.7454
 10
736.343
 20
76.8057
 10
736.532
 20
76.8695
 10
736.626
 20
76.9026
 10
736.812
 20
76.9715
 10
736.998
 20
77.0438
 10
737.09
 20
77.0811
 10
737.274
 20
77.1584
 10
737.365
 20
77.1983
 10
737.547
 20
77.2805
 10
737.727
 20
77.366
 10
737.905
 20
77.4547
 10
738.081
 20
77.5467
 10
738.257
 20
77.6418
 10
738.516
 20
77.7904
 10
738.601
 20
77.8415
 10
738.771
 20
77.946
 10
738.855
 20
77.9994
 10
738.938
 20
78.0535
 10
739.104
 20
78.1641
 10
739.268
 20
78.2776
 10
739.349
 20
78.3355
 10
739.509
 20
78.4535
 10
739.668
 20
78.5743
 10
739.824
 20
78.698
 10
739.978
 20
78.8245
 10
740.054
 20
78.8887
 10
740.204
 20
79.0194
 10
740.352
 20
79.1527
 10
740.497
 20
79.2887
 10
740.569
 20
79.3576
 10
740.711
 20
79.4975
 10
740.781
 20
79.5684
 10
740.919
 20
79.7121
 10
740.987
 20
79.7849
 10
741.121
 20
79.9322
 10
741.187
 20
80.0068
 10
741.317
 20
80.1578
 10
741.444
 20
80.3111
 10
741.569
 20
80.4666
 10
741.69
 20
80.6244
 10
741.75
 20
80.7041
 10
741.867
 20
80.8651
 10
741.981
 20
81.0283
 10
742.093
 20
81.1935
 10
742.201
 20
81.3606
 10
742.254
 20
81.4449
 10
742.306
 20
81.5297
 10
742.408
 20
81.7007
 10
742.458
 20
81.7868
 10
742.507
 20
81.8735
 10
742.603
 20
82.048
 10
742.65
 20
82.1359
 10
742.696
 20
82.2243
 10
742.786
 20
82.4022
 10
742.872
 20
82.5817
 10
742.914
 20
82.672
 10
742.955
 20
82.7627
 10
742.995
 20
82.8538
 10
743.073
 20
83.037
 10
743.148
 20
83.2217
 10
743.184
 20
83.3145
 10
743.254
 20
83.501
 10
743.32
 20
83.6888
 10
743.383
 20
83.8778
 10
743.413
 20
83.9727
 10
743.471
 20
84.1633
 10
743.525
 20
84.355
 10
743.551
 20
84.4512
 10
743.576
 20
84.5476
 10
743.6
 20
84.6442
 10
743.646
 20
84.8381
 10
743.688
 20
85.0328
 10
743.727
 20
85.2282
 10
743.778
 20
85.5225
 10
743.793
 20
85.6209
 10
743.821
 20
85.8182
 10
743.856
 20
86.1149
 10
743.875
 20
86.3131
 10
743.883
 20
86.4124
 10
743.89
 20
86.5117
 10
743.902
 20
86.7105
 10
743.91
 20
86.9096
 10
743.913
 20
87.0091
 10
743.915
 20
87.2083
 10
743.915
 20
87.3079
 10
743.913
 20
87.507
 10
743.91
 20
87.6066
 10
743.902
 20
87.8056
 10
743.89
 20
88.0044
 10
743.883
 20
88.1037
 10
743.875
 20
88.203
 10
743.856
 20
88.4013
 10
743.833
 20
88.5992
 10
743.807
 20
88.7966
 10
743.793
 20
88.8952
 10
743.778
 20
88.9936
 10
743.727
 20
89.2879
 10
743.688
 20
89.4834
 10
743.646
 20
89.678
 10
743.6
 20
89.8719
 10
743.576
 20
89.9686
 10
743.551
 20
90.065
 10
743.525
 20
90.1611
 10
743.471
 20
90.3528
 10
743.413
 20
90.5434
 10
743.383
 20
90.6383
 10
743.32
 20
90.8273
 10
743.254
 20
91.0151
 10
743.184
 20
91.2017
 10
743.148
 20
91.2945
 10
743.073
 20
91.4791
 10
742.995
 20
91.6623
 10
742.955
 20
91.7534
 10
742.914
 20
91.8441
 10
742.872
 20
91.9344
 10
742.786
 20
92.1139
 10
742.696
 20
92.2918
 10
742.65
 20
92.3802
 10
742.603
 20
92.4681
 10
742.507
 20
92.6427
 10
742.458
 20
92.7293
 10
742.408
 20
92.8155
 10
742.306
 20
92.9864
 10
742.254
 20
93.0712
 10
742.201
 20
93.1555
 10
742.093
 20
93.3227
 10
741.981
 20
93.4878
 10
741.867
 20
93.651
 10
741.75
 20
93.812
 10
741.69
 20
93.8917
 10
741.569
 20
94.0495
 10
741.444
 20
94.2051
 10
741.317
 20
94.3583
 10
741.187
 20
94.5093
 10
741.121
 20
94.5839
 10
740.987
 20
94.7312
 10
740.919
 20
94.804
 10
740.781
 20
94.9477
 10
740.711
 20
95.0186
 10
740.569
 20
95.1585
 10
740.497
 20
95.2274
 10
740.352
 20
95.3634
 10
740.204
 20
95.4967
 10
740.054
 20
95.6274
 10
739.978
 20
95.6916
 10
739.824
 20
95.8181
 10
739.668
 20
95.9418
 10
739.509
 20
96.0626
 10
739.349
 20
96.1806
 10
739.268
 20
96.2385
 10
739.104
 20
96.352
 10
739.021
 20
96.4077
 10
738.855
 20
96.5167
 10
738.771
 20
96.5701
 10
738.686
 20
96.6227
 10
738.516
 20
96.7257
 10
738.257
 20
96.8743
 10
738.081
 20
96.9694
 10
737.905
 20
97.0614
 10
737.727
 20
97.1501
 10
737.547
 20
97.2356
 10
737.456
 20
97.2771
 10
737.274
 20
97.3577
 10
737.09
 20
97.435
 10
736.998
 20
97.4723
 10
736.812
 20
97.5446
 10
736.626
 20
97.6134
 10
736.532
 20
97.6466
 10
736.343
 20
97.7104
 10
736.248
 20
97.741
 10
736.058
 20
97.7996
 10
735.867
 20
97.8548
 10
735.674
 20
97.9065
 10
735.578
 20
97.931
 10
735.481
 20
97.9547
 10
735.384
 20
97.9775
 10
735.287
 20
97.9994
 10
735.092
 20
98.0406
 10
734.896
 20
98.0782
 10
734.798
 20
98.0957
 10
734.7
 20
98.1123
 10
734.602
 20
98.128
 10
734.405
 20
98.1568
 10
734.306
 20
98.1698
 10
734.108
 20
98.1932
 10
733.91
 20
98.213
 10
733.811
 20
98.2215
 10
733.612
 20
98.236
 10
733.413
 20
98.2468
 10
733.214
 20
98.254
 10
733.015
 20
98.2576
 10
715.915
 20
98.258
  0
LWPOLYLINE
  5
61
  8
LAYER8
 90
   209
 10
711.915
 20
98.258
 10
694.816
 20
98.2576
 10
694.617
 20
98.254
 10
694.418
 20
98.2468
 10
694.219
 20
98.236
 10
694.119
 20
98.2292
 10
693.921
 20
98.213
 10
693.723
 20
98.1932
 10
693.525
 20
98.1698
 10
693.426
 20
98.1568
 10
693.327
 20
98.1428
 10
693.229
 20
98.128
 10
693.131
 20
98.1123
 10
693.033
 20
98.0957
 10
692.935
 20
98.0782
 10
692.739
 20
98.0406
 10
692.641
 20
98.0204
 10
692.544
 20
97.9994
 10
692.447
 20
97.9775
 10
692.35
 20
97.9547
 10
692.253
 20
97.931
 10
692.06
 20
97.8811
 10
691.868
 20
97.8276
 10
691.678
 20
97.7707
 10
691.488
 20
97.7104
 10
691.393
 20
97.6789
 10
691.205
 20
97.6134
 10
691.018
 20
97.5446
 10
690.925
 20
97.5089
 10
690.74
 20
97.435
 10
690.648
 20
97.3967
 10
690.466
 20
97.3178
 10
690.284
 20
97.2356
 10
690.104
 20
97.1501
 10
690.015
 20
97.1061
 10
689.837
 20
97.0158
 10
689.749
 20
96.9694
 10
689.574
 20
96.8743
 10
689.487
 20
96.8255
 10
689.315
 20
96.7257
 10
689.23
 20
96.6746
 10
689.06
 20
96.5701
 10
688.892
 20
96.4626
 10
688.809
 20
96.4077
 10
688.727
 20
96.352
 10
688.563
 20
96.2385
 10
688.482
 20
96.1806
 10
688.321
 20
96.0626
 10
688.163
 20
95.9418
 10
688.007
 20
95.8181
 10
687.853
 20
95.6916
 10
687.777
 20
95.6274
 10
687.552
 20
95.4304
 10
687.333
 20
95.2274
 10
687.261
 20
95.1585
 10
687.12
 20
95.0186
 10
686.98
 20
94.8762
 10
686.776
 20
94.6579
 10
686.578
 20
94.4341
 10
686.514
 20
94.3583
 10
686.387
 20
94.2051
 10
686.262
 20
94.0495
 10
686.141
 20
93.8917
 10
686.081
 20
93.812
 10
685.964
 20
93.651
 10
685.906
 20
93.5697
 10
685.738
 20
93.3227
 10
685.63
 20
93.1555
 10
685.577
 20
93.0712
 10
685.422
 20
92.8155
 10
685.372
 20
92.7293
 10
685.323
 20
92.6427
 10
685.227
 20
92.4681
 10
685.135
 20
92.2918
 10
685.045
 20
92.1139
 10
684.959
 20
91.9344
 10
684.917
 20
91.8441
 10
684.876
 20
91.7534
 10
684.836
 20
91.6623
 10
684.758
 20
91.4791
 10
684.683
 20
91.2945
 10
684.611
 20
91.1085
 10
684.577
 20
91.0151
 10
684.511
 20
90.8273
 10
684.417
 20
90.5434
 10
684.332
 20
90.2571
 10
684.279
 20
90.065
 10
684.255
 20
89.9686
 10
684.23
 20
89.8719
 10
684.185
 20
89.678
 10
684.143
 20
89.4834
 10
684.104
 20
89.2879
 10
684.086
 20
89.19
 10
684.053
 20
88.9936
 10
684.038
 20
88.8952
 10
684.01
 20
88.698
 10
683.997
 20
88.5992
 10
683.975
 20
88.4013
 10
683.956
 20
88.203
 10
683.948
 20
88.1037
 10
683.941
 20
88.0044
 10
683.929
 20
87.8056
 10
683.921
 20
87.6066
 10
683.918
 20
87.507
 10
683.915
 20
87.3079
 10
683.915
 20
87.2083
 10
683.918
 20
87.0091
 10
683.921
 20
86.9096
 10
683.929
 20
86.7105
 10
683.941
 20
86.5117
 10
683.948
 20
86.4124
 10
683.956
 20
86.3131
 10
683.975
 20
86.1149
 10
683.997
 20
85.9169
 10
684.023
 20
85.7195
 10
684.053
 20
85.5225
 10
684.086
 20
85.3261
 10
684.104
 20
85.2282
 10
684.143
 20
85.0328
 10
684.185
 20
84.8381
 10
684.23
 20
84.6442
 10
684.255
 20
84.5476
 10
684.279
 20
84.4512
 10
684.305
 20
84.355
 10
684.36
 20
84.1633
 10
684.417
 20
83.9727
 10
684.511
 20
83.6888
 10
684.577
 20
83.501
 10
684.611
 20
83.4076
 10
684.683
 20
83.2216
 10
684.758
 20
83.037
 10
684.836
 20
82.8538
 10
684.876
 20
82.7627
 10
684.917
 20
82.672
 10
684.959
 20
82.5817
 10
685.045
 20
82.4022
 10
685.135
 20
82.2243
 10
685.227
 20
82.048
 10
685.323
 20
81.8735
 10
685.372
 20
81.7868
 10
685.422
 20
81.7007
 10
685.577
 20
81.4449
 10
685.63
 20
81.3606
 10
685.738
 20
81.1935
 10
685.906
 20
80.9465
 10
685.964
 20
80.8651
 10
686.081
 20
80.7041
 10
686.141
 20
80.6244
 10
686.262
 20
80.4666
 10
686.387
 20
80.3111
 10
686.514
 20
80.1578
 10
686.578
 20
80.082
 10
686.776
 20
79.8582
 10
686.98
 20
79.6399
 10
687.12
 20
79.4975
 10
687.261
 20
79.3576
 10
687.333
 20
79.2887
 10
687.552
 20
79.0857
 10
687.777
 20
78.8887
 10
687.853
 20
78.8245
 10
688.007
 20
78.698
 10
688.163
 20
78.5743
 10
688.321
 20
78.4535
 10
688.482
 20
78.3355
 10
688.563
 20
78.2776
 10
688.809
 20
78.1084
 10
688.892
 20
78.0535
 10
689.06
 20
77.946
 10
689.145
 20
77.8934
 10
689.315
 20
77.7904
 10
689.487
 20
77.6906
 10
689.574
 20
77.6418
 10
689.749
 20
77.5467
 10
689.837
 20
77.5003
 10
689.926
 20
77.4547
 10
690.104
 20
77.366
 10
690.284
 20
77.2805
 10
690.466
 20
77.1983
 10
690.648
 20
77.1194
 10
690.74
 20
77.0811
 10
690.925
 20
77.0072
 10
691.018
 20
76.9715
 10
691.205
 20
76.9026
 10
691.393
 20
76.8372
 10
691.488
 20
76.8057
 10
691.678
 20
76.7454
 10
691.868
 20
76.6885
 10
692.06
 20
76.635
 10
692.253
 20
76.5851
 10
692.35
 20
76.5614
 10
692.447
 20
76.5386
 10
692.544
 20
76.5167
 10
692.641
 20
76.4957
 10
692.739
 20
76.4755
 10
692.935
 20
76.4379
 10
693.033
 20
76.4204
 10
693.131
 20
76.4038
 10
693.229
 20
76.3881
 10
693.327
 20
76.3733
 10
693.426
 20
76.3593
 10
693.525
 20
76.3463
 10
693.723
 20
76.3229
 10
693.921
 20
76.3031
 10
694.119
 20
76.2869
 10
694.219
 20
76.2801
 10
694.418
 20
76.2693
 10
694.617
 20
76.2621
 10
694.816
 20
76.2585
 10
711.915
 20
76.2581
  0
LWPOLYLINE
  5
62
  8
LAYER8
 90
     5
 10
719.18
 20
106.332
 10
694.18
 20
106.332
 10
694.18
 20
109.332
 10
719.18
 20
109.332
 10
719.18
 20
106.332
  0
LWPOLYLINE
  5
63
  8
LAYER8
 90
     5
 10
669.18
 20
106.332
 10
644.18
 20
106.332
 10
644.18
 20
109.332
 10
669.18
 20
109.332
 10
669.18
 20
106.332
  0
LWPOLYLINE
  5
64
  8
LAYER8
 90
    49
 10
497.551
 20
72.8319
 10
497.545
 20
72.7341
 10
497.526
 20
72.6378
 10
497.494
 20
72.5449
 10
497.451
 20
72.4569
 10
497.396
 20
72.3754
 10
497.331
 20
72.3016
 10
497.258
 20
72.2369
 10
497.176
 20
72.1824
 10
497.088
 20
72.139
 10
496.995
 20
72.1075
 10
496.899
 20
72.0884
 10
496.801
 20
72.0819
 10
496.703
 20
72.0884
 10
496.607
 20
72.1075
 10
496.514
 20
72.139
 10
496.426
 20
72.1824
 10
496.344
 20
72.2369
 10
496.271
 20
72.3016
 10
496.206
 20
72.3754
 10
496.151
 20
72.4569
 10
496.108
 20
72.5449
 10
496.077
 20
72.6378
 10
496.057
 20
72.7341
 10
496.051
 20
72.8319
 10
496.057
 20
72.9298
 10
496.077
 20
73.0261
 10
496.108
 20
73.119
 10
496.151
 20
73.2069
 10
496.206
 20
73.2885
 10
496.271
 20
73.3623
 10
496.344
 20
73.427
 10
496.426
 20
73.4815
 10
496.514
 20
73.5249
 10
496.607
 20
73.5564
 10
496.703
 20
73.5755
 10
496.801
 20
73.5819
 10
496.899
 20
73.5755
 10
496.995
 20
73.5564
 10
497.088
 20
73.5249
 10
497.176
 20
73.4815
 10
497.258
 20
73.427
 10
497.331
 20
73.3623
 10
497.396
 20
73.2885
 10
497.451
 20
73.2069
 10
497.494
 20
73.119
 10
497.526
 20
73.0261
 10
497.545
 20
72.9298
 10
497.551
 20
72.8319
  0
LWPOLYLINE
  5
65
  8
LAYER8
 90
     5
 10
619.18
 20
106.332
 10
594.18
 20
106.332
 10
594.18
 20
109.332
 10
619.18
 20
109.332
 10
619.18
 20
106.332
  0
LWPOLYLINE
  5
66
  8
LAYER8
 90
     5
 10
569.18
 20
106.332
 10
544.18
 20
106.332
 10
544.18
 20
109.332
 10
569.18
 20
109.332
 10
569.18
 20
106.332
  0
LWPOLYLINE
  5
67
  8
LAYER8
 90
     5
 10
519.18
 20
106.332
 10
494.181
 20
106.332
 10
494.181
 20
109.332
 10
519.18
 20
109.332
 10
519.18
 20
106.332
  0
LWPOLYLINE
  5
68
  8
LAYER8
 90
     5
 10
469.181
 20
106.332
 10
444.181
 20
106.332
 10
444.181
 20
109.332
 10
469.181
 20
109.332
 10
469.181
 20
106.332
  0
ENDSEC
  0
EOF
