 0
SECTION
 2
HEADER
 9
$EXTMIN
 10
-180
 20
-90
 9
$EXTMAX
 10
180
 20
90
 9
$LTSCALE
 40
0.000394
 9
$PDMODE
 70
35
 9
$PDSIZE
 40
0.052913
 0
ENDSEC
 0
SECTION
 2
TABLES
 0
Table
 2
LTYPE
 70
1
 0
LTYPE
 2
CONTINUOUS
 70
64
 3
Solid Line
 72
65
 73
0
 40
0.000000
 0
ENDTAB
 0
TABLE
 2
LAYER
 70
1
 0
LAYER
 2
PTS2DXF
 70
64
 62
7
 6
CONTINUOUS
 0
ENDTAB
 0
ENDSEC
 0
SECTION
 2
ENTITIES
  0
POLYLINE
100
AcDb2dPolyline
 66
1
  8
PTS2DXF
  6
CONTINUOUS
 10
0
 20
0
 70
0
  0
VERTEX
  8
PTS2DXF
  6
CONTINUOUS
 10
8.318516
 20
56
  0
VERTEX
  8
PTS2DXF
  6
CONTINUOUS
 10
8.32361
 20
55.98719
  0
VERTEX
  8
PTS2DXF
  6
CONTINUOUS
 10
8.331996
 20
55.98344
  0
VERTEX
  8
PTS2DXF
  6
CONTINUOUS
 10
8.33665
 20
55.97769
  0
VERTEX
  8
PTS2DXF
  6
CONTINUOUS
 10
8.344292
 20
55.97577
  0
VERTEX
  8
PTS2DXF
  6
CONTINUOUS
 10
8.347407
 20
55.97231
  0
VERTEX
  8
PTS2DXF
  6
CONTINUOUS
 10
8.355036
 20
55.97017
  0
VERTEX
  8
PTS2DXF
  6
CONTINUOUS
 10
8.362138
 20
55.96483
  0
VERTEX
  8
PTS2DXF
  6
CONTINUOUS
 10
8.360771
 20
55.96098
  0
VERTEX
  8
PTS2DXF
  6
CONTINUOUS
 10
8.365215
 20
55.96046
  0
VERTEX
  8
PTS2DXF
  6
CONTINUOUS
 10
8.371836
 20
55.95331
  0
VERTEX
  8
PTS2DXF
  6
CONTINUOUS
 10
8.378651
 20
55.95118
  0
VERTEX
  8
PTS2DXF
  6
CONTINUOUS
 10
8.377356
 20
55.94914
  0
VERTEX
  8
PTS2DXF
  6
CONTINUOUS
 10
8.382894
 20
55.93516
  0
VERTEX
  8
PTS2DXF
  6
CONTINUOUS
 10
8.378663
 20
55.93066
  0
VERTEX
  8
PTS2DXF
  6
CONTINUOUS
 10
8.37881
 20
55.92404
  0
VERTEX
  8
PTS2DXF
  6
CONTINUOUS
 10
8.373857
 20
55.92182
  0
VERTEX
  8
PTS2DXF
  6
CONTINUOUS
 10
8.382741
 20
55.91645
  0
VERTEX
  8
PTS2DXF
  6
CONTINUOUS
 10
8.382636
 20
55.91219
  0
VERTEX
  8
PTS2DXF
  6
CONTINUOUS
 10
8.382503
 20
55.90438
  0
VERTEX
  8
PTS2DXF
  6
CONTINUOUS
 10
8.358614
 20
55.89442
  0
VERTEX
  8
PTS2DXF
  6
CONTINUOUS
 10
8.335813
 20
55.88079
  0
VERTEX
  8
PTS2DXF
  6
CONTINUOUS
 10
8.328587
 20
55.87176
  0
VERTEX
  8
PTS2DXF
  6
CONTINUOUS
 10
8.318374
 20
55.86937
  0
VERTEX
  8
PTS2DXF
  6
CONTINUOUS
 10
8.296898
 20
55.858
  0
VERTEX
  8
PTS2DXF
  6
CONTINUOUS
 10
8.288368
 20
55.85719
  0
VERTEX
  8
PTS2DXF
  6
CONTINUOUS
 10
8.273784
 20
55.84573
  0
VERTEX
  8
PTS2DXF
  6
CONTINUOUS
 10
8.26652
 20
55.84627
  0
VERTEX
  8
PTS2DXF
  6
CONTINUOUS
 10
8.262185
 20
55.84951
  0
VERTEX
  8
PTS2DXF
  6
CONTINUOUS
 10
8.254809
 20
55.85135
  0
VERTEX
  8
PTS2DXF
  6
CONTINUOUS
 10
8.261177
 20
55.85523
  0
VERTEX
  8
PTS2DXF
  6
CONTINUOUS
 10
8.263892
 20
55.86317
  0
VERTEX
  8
PTS2DXF
  6
CONTINUOUS
 10
8.261297
 20
55.86982
  0
VERTEX
  8
PTS2DXF
  6
CONTINUOUS
 10
8.265129
 20
55.87502
  0
VERTEX
  8
PTS2DXF
  6
CONTINUOUS
 10
8.263127
 20
55.8869
  0
VERTEX
  8
PTS2DXF
  6
CONTINUOUS
 10
8.258692
 20
55.88741
  0
VERTEX
  8
PTS2DXF
  6
CONTINUOUS
 10
8.251296
 20
55.88453
  0
VERTEX
  8
PTS2DXF
  6
CONTINUOUS
 10
8.248745
 20
55.88114
  0
VERTEX
  8
PTS2DXF
  6
CONTINUOUS
 10
8.242639
 20
55.88029
  0
VERTEX
  8
PTS2DXF
  6
CONTINUOUS
 10
8.2382
 20
55.88405
  0
VERTEX
  8
PTS2DXF
  6
CONTINUOUS
 10
8.232808
 20
55.88862
  0
VERTEX
  8
PTS2DXF
  6
CONTINUOUS
 10
8.232143
 20
55.89273
  0
VERTEX
  8
PTS2DXF
  6
CONTINUOUS
 10
8.23348
 20
55.89613
  0
VERTEX
  8
PTS2DXF
  6
CONTINUOUS
 10
8.242843
 20
55.8974
  0
VERTEX
  8
PTS2DXF
  6
CONTINUOUS
 10
8.246966
 20
55.8994
  0
VERTEX
  8
PTS2DXF
  6
CONTINUOUS
 10
8.245008
 20
55.90125
  0
VERTEX
  8
PTS2DXF
  6
CONTINUOUS
 10
8.240153
 20
55.90153
  0
VERTEX
  8
PTS2DXF
  6
CONTINUOUS
 10
8.227087
 20
55.89872
  0
VERTEX
  8
PTS2DXF
  6
CONTINUOUS
 10
8.215803
 20
55.90044
  0
VERTEX
  8
PTS2DXF
  6
CONTINUOUS
 10
8.210885
 20
55.8989
  0
VERTEX
  8
PTS2DXF
  6
CONTINUOUS
 10
8.209559
 20
55.89572
  0
VERTEX
  8
PTS2DXF
  6
CONTINUOUS
 10
8.212291
 20
55.89272
  0
VERTEX
  8
PTS2DXF
  6
CONTINUOUS
 10
8.208972
 20
55.89048
  0
VERTEX
  8
PTS2DXF
  6
CONTINUOUS
 10
8.214839
 20
55.88449
  0
VERTEX
  8
PTS2DXF
  6
CONTINUOUS
 10
8.21114
 20
55.88293
  0
VERTEX
  8
PTS2DXF
  6
CONTINUOUS
 10
8.197764
 20
55.88263
  0
VERTEX
  8
PTS2DXF
  6
CONTINUOUS
 10
8.202869
 20
55.87801
  0
VERTEX
  8
PTS2DXF
  6
CONTINUOUS
 10
8.210449
 20
55.87473
  0
VERTEX
  8
PTS2DXF
  6
CONTINUOUS
 10
8.212696
 20
55.86946
  0
VERTEX
  8
PTS2DXF
  6
CONTINUOUS
 10
8.209196
 20
55.86198
  0
VERTEX
  8
PTS2DXF
  6
CONTINUOUS
 10
8.205816
 20
55.85791
  0
VERTEX
  8
PTS2DXF
  6
CONTINUOUS
 10
8.201365
 20
55.85796
  0
VERTEX
  8
PTS2DXF
  6
CONTINUOUS
 10
8.187257
 20
55.84785
  0
VERTEX
  8
PTS2DXF
  6
CONTINUOUS
 10
8.1829
 20
55.83878
  0
VERTEX
  8
PTS2DXF
  6
CONTINUOUS
 10
8.180451
 20
55.83812
  0
VERTEX
  8
PTS2DXF
  6
CONTINUOUS
 10
8.17677
 20
55.84888
  0
VERTEX
  8
PTS2DXF
  6
CONTINUOUS
 10
8.180613
 20
55.85477
  0
VERTEX
  8
PTS2DXF
  6
CONTINUOUS
 10
8.197253
 20
55.86781
  0
VERTEX
  8
PTS2DXF
  6
CONTINUOUS
 10
8.196522
 20
55.8701
  0
VERTEX
  8
PTS2DXF
  6
CONTINUOUS
 10
8.187727
 20
55.87339
  0
VERTEX
  8
PTS2DXF
  6
CONTINUOUS
 10
8.182697
 20
55.88028
  0
VERTEX
  8
PTS2DXF
  6
CONTINUOUS
 10
8.186115
 20
55.88549
  0
VERTEX
  8
PTS2DXF
  6
CONTINUOUS
 10
8.17458
 20
55.90363
  0
VERTEX
  8
PTS2DXF
  6
CONTINUOUS
 10
8.17715
 20
55.90771
  0
VERTEX
  8
PTS2DXF
  6
CONTINUOUS
 10
8.171952
 20
55.90982
  0
VERTEX
  8
PTS2DXF
  6
CONTINUOUS
 10
8.177374
 20
55.91432
  0
VERTEX
  8
PTS2DXF
  6
CONTINUOUS
 10
8.176251
 20
55.91706
  0
VERTEX
  8
PTS2DXF
  6
CONTINUOUS
 10
8.173018
 20
55.91733
  0
VERTEX
  8
PTS2DXF
  6
CONTINUOUS
 10
8.171865
 20
55.91917
  0
VERTEX
  8
PTS2DXF
  6
CONTINUOUS
 10
8.175565
 20
55.92072
  0
VERTEX
  8
PTS2DXF
  6
CONTINUOUS
 10
8.178237
 20
55.92776
  0
VERTEX
  8
PTS2DXF
  6
CONTINUOUS
 10
8.17073
 20
55.93354
  0
VERTEX
  8
PTS2DXF
  6
CONTINUOUS
 10
8.171701
 20
55.93716
  0
VERTEX
  8
PTS2DXF
  6
CONTINUOUS
 10
8.173049
 20
55.94218
  0
VERTEX
  8
PTS2DXF
  6
CONTINUOUS
 10
8.16752
 20
55.94658
  0
VERTEX
  8
PTS2DXF
  6
CONTINUOUS
 10
8.16801
 20
55.94908
  0
VERTEX
  8
PTS2DXF
  6
CONTINUOUS
 10
8.174063
 20
55.9481
  0
VERTEX
  8
PTS2DXF
  6
CONTINUOUS
 10
8.176152
 20
55.9499
  0
VERTEX
  8
PTS2DXF
  6
CONTINUOUS
 10
8.173836
 20
55.95335
  0
VERTEX
  8
PTS2DXF
  6
CONTINUOUS
 10
8.159869
 20
55.96033
  0
VERTEX
  8
PTS2DXF
  6
CONTINUOUS
 10
8.156945
 20
55.96994
  0
VERTEX
  8
PTS2DXF
  6
CONTINUOUS
 10
8.149043
 20
55.97641
  0
VERTEX
  8
PTS2DXF
  6
CONTINUOUS
 10
8.151593
 20
55.9798
  0
VERTEX
  8
PTS2DXF
  6
CONTINUOUS
 10
8.140509
 20
55.98836
  0
VERTEX
  8
PTS2DXF
  6
CONTINUOUS
 10
8.135301
 20
56
  0
VERTEX
  8
PTS2DXF
  6
CONTINUOUS
 10
8.134503
 20
56.03426
  0
VERTEX
  8
PTS2DXF
  6
CONTINUOUS
 10
8.139062
 20
56.05357
  0
VERTEX
  8
PTS2DXF
  6
CONTINUOUS
 10
8.139312
 20
56.07574
  0
VERTEX
  8
PTS2DXF
  6
CONTINUOUS
 10
8.147137
 20
56.09514
  0
VERTEX
  8
PTS2DXF
  6
CONTINUOUS
 10
8.145881
 20
56.10059
  0
VERTEX
  8
PTS2DXF
  6
CONTINUOUS
 10
8.139026
 20
56.10713
  0
VERTEX
  8
PTS2DXF
  6
CONTINUOUS
 10
8.133493
 20
56.1124
  0
VERTEX
  8
PTS2DXF
  6
CONTINUOUS
 10
8.134606
 20
56.11883
  0
VERTEX
  8
PTS2DXF
  6
CONTINUOUS
 10
8.141684
 20
56.11718
  0
VERTEX
  8
PTS2DXF
  6
CONTINUOUS
 10
8.164151
 20
56.10699
  0
VERTEX
  8
PTS2DXF
  6
CONTINUOUS
 10
8.176225
 20
56.10408
  0
VERTEX
  8
PTS2DXF
  6
CONTINUOUS
 10
8.198179
 20
56.10531
  0
VERTEX
  8
PTS2DXF
  6
CONTINUOUS
 10
8.207662
 20
56.10417
  0
VERTEX
  8
PTS2DXF
  6
CONTINUOUS
 10
8.222177
 20
56.10132
  0
VERTEX
  8
PTS2DXF
  6
CONTINUOUS
 10
8.239916
 20
56.09375
  0
VERTEX
  8
PTS2DXF
  6
CONTINUOUS
 10
8.268111
 20
56.07225
  0
VERTEX
  8
PTS2DXF
  6
CONTINUOUS
 10
8.281278
 20
56.06548
  0
VERTEX
  8
PTS2DXF
  6
CONTINUOUS
 10
8.291038
 20
56.05519
  0
VERTEX
  8
PTS2DXF
  6
CONTINUOUS
 10
8.306655
 20
56.04825
  0
VERTEX
  8
PTS2DXF
  6
CONTINUOUS
 10
8.309338
 20
56.04511
  0
VERTEX
  8
PTS2DXF
  6
CONTINUOUS
 10
8.303254
 20
56.034
  0
VERTEX
  8
PTS2DXF
  6
CONTINUOUS
 10
8.313061
 20
56.01755
  0
VERTEX
  8
PTS2DXF
  6
CONTINUOUS
 10
8.310485
 20
56.00858
  0
VERTEX
  8
PTS2DXF
  6
CONTINUOUS
 10
8.318516
 20
56
  0
SEQEND
  0
POLYLINE
100
AcDb2dPolyline
 66
1
  8
PTS2DXF
  6
CONTINUOUS
 10
0
 20
0
 70
0
  0
VERTEX
  8
PTS2DXF
  6
CONTINUOUS
 10
10.79324
 20
55.30982
  0
VERTEX
  8
PTS2DXF
  6
CONTINUOUS
 10
10.78898
 20
55.30721
  0
VERTEX
  8
PTS2DXF
  6
CONTINUOUS
 10
10.79187
 20
55.30392
  0
VERTEX
  8
PTS2DXF
  6
CONTINUOUS
 10
10.78551
 20
55.30024
  0
VERTEX
  8
PTS2DXF
  6
CONTINUOUS
 10
10.78551
 20
55.30024
  0
VERTEX
  8
PTS2DXF
  6
CONTINUOUS
 10
10.77122
 20
55.30138
  0
VERTEX
  8
PTS2DXF
  6
CONTINUOUS
 10
10.76064
 20
55.29942
  0
VERTEX
  8
PTS2DXF
  6
CONTINUOUS
 10
10.75169
 20
55.30199
  0
VERTEX
  8
PTS2DXF
  6
CONTINUOUS
 10
10.75099
 20
55.29881
  0
VERTEX
  8
PTS2DXF
  6
CONTINUOUS
 10
10.75763
 20
55.29723
  0
VERTEX
  8
PTS2DXF
  6
CONTINUOUS
 10
10.78487
 20
55.29775
  0
VERTEX
  8
PTS2DXF
  6
CONTINUOUS
 10
10.79189
 20
55.29593
  0
VERTEX
  8
PTS2DXF
  6
CONTINUOUS
 10
10.79732
 20
55.29004
  0
VERTEX
  8
PTS2DXF
  6
CONTINUOUS
 10
10.79199
 20
55.2845
  0
VERTEX
  8
PTS2DXF
  6
CONTINUOUS
 10
10.79299
 20
55.2783
  0
VERTEX
  8
PTS2DXF
  6
CONTINUOUS
 10
10.80045
 20
55.26869
  0
VERTEX
  8
PTS2DXF
  6
CONTINUOUS
 10
10.80457
 20
55.25759
  0
VERTEX
  8
PTS2DXF
  6
CONTINUOUS
 10
10.81966
 20
55.23197
  0
VERTEX
  8
PTS2DXF
  6
CONTINUOUS
 10
10.814
 20
55.21479
  0
VERTEX
  8
PTS2DXF
  6
CONTINUOUS
 10
10.81683
 20
55.20375
  0
VERTEX
  8
PTS2DXF
  6
CONTINUOUS
 10
10.81038
 20
55.18153
  0
VERTEX
  8
PTS2DXF
  6
CONTINUOUS
 10
10.80678
 20
55.17319
  0
VERTEX
  8
PTS2DXF
  6
CONTINUOUS
 10
10.79779
 20
55.16685
  0
VERTEX
  8
PTS2DXF
  6
CONTINUOUS
 10
10.78499
 20
55.13321
  0
VERTEX
  8
PTS2DXF
  6
CONTINUOUS
 10
10.78485
 20
55.12338
  0
VERTEX
  8
PTS2DXF
  6
CONTINUOUS
 10
10.77434
 20
55.10932
  0
VERTEX
  8
PTS2DXF
  6
CONTINUOUS
 10
10.77893
 20
55.10323
  0
VERTEX
  8
PTS2DXF
  6
CONTINUOUS
 10
10.76287
 20
55.09757
  0
VERTEX
  8
PTS2DXF
  6
CONTINUOUS
 10
10.75845
 20
55.08879
  0
VERTEX
  8
PTS2DXF
  6
CONTINUOUS
 10
10.75813
 20
55.08126
  0
VERTEX
  8
PTS2DXF
  6
CONTINUOUS
 10
10.74626
 20
55.06929
  0
VERTEX
  8
PTS2DXF
  6
CONTINUOUS
 10
10.71076
 20
55.05967
  0
VERTEX
  8
PTS2DXF
  6
CONTINUOUS
 10
10.7094
 20
55.06222
  0
VERTEX
  8
PTS2DXF
  6
CONTINUOUS
 10
10.69641
 20
55.06354
  0
VERTEX
  8
PTS2DXF
  6
CONTINUOUS
 10
10.68442
 20
55.05865
  0
VERTEX
  8
PTS2DXF
  6
CONTINUOUS
 10
10.67623
 20
55.06028
  0
VERTEX
  8
PTS2DXF
  6
CONTINUOUS
 10
10.66122
 20
55.05709
  0
VERTEX
  8
PTS2DXF
  6
CONTINUOUS
 10
10.64923
 20
55.05632
  0
VERTEX
  8
PTS2DXF
  6
CONTINUOUS
 10
10.64435
 20
55.05944
  0
VERTEX
  8
PTS2DXF
  6
CONTINUOUS
 10
10.6203
 20
55.06087
  0
VERTEX
  8
PTS2DXF
  6
CONTINUOUS
 10
10.6142
 20
55.05579
  0
VERTEX
  8
PTS2DXF
  6
CONTINUOUS
 10
10.59459
 20
55.04744
  0
VERTEX
  8
PTS2DXF
  6
CONTINUOUS
 10
10.55887
 20
55.03735
  0
VERTEX
  8
PTS2DXF
  6
CONTINUOUS
 10
10.53144
 20
55.03269
  0
VERTEX
  8
PTS2DXF
  6
CONTINUOUS
 10
10.52548
 20
55.02829
  0
VERTEX
  8
PTS2DXF
  6
CONTINUOUS
 10
10.51908
 20
55.0278
  0
VERTEX
  8
PTS2DXF
  6
CONTINUOUS
 10
10.49284
 20
55.03201
  0
VERTEX
  8
PTS2DXF
  6
CONTINUOUS
 10
10.49025
 20
55.03476
  0
VERTEX
  8
PTS2DXF
  6
CONTINUOUS
 10
10.48776
 20
55.03741
  0
VERTEX
  8
PTS2DXF
  6
CONTINUOUS
 10
10.47937
 20
55.04131
  0
VERTEX
  8
PTS2DXF
  6
CONTINUOUS
 10
10.47269
 20
55.04219
  0
VERTEX
  8
PTS2DXF
  6
CONTINUOUS
 10
10.4504
 20
55.04171
  0
VERTEX
  8
PTS2DXF
  6
CONTINUOUS
 10
10.43304
 20
55.04313
  0
VERTEX
  8
PTS2DXF
  6
CONTINUOUS
 10
10.41929
 20
55.04033
  0
VERTEX
  8
PTS2DXF
  6
CONTINUOUS
 10
10.3896
 20
55.05078
  0
VERTEX
  8
PTS2DXF
  6
CONTINUOUS
 10
10.39123
 20
55.05576
  0
VERTEX
  8
PTS2DXF
  6
CONTINUOUS
 10
10.38175
 20
55.06105
  0
VERTEX
  8
PTS2DXF
  6
CONTINUOUS
 10
10.37588
 20
55.06671
  0
VERTEX
  8
PTS2DXF
  6
CONTINUOUS
 10
10.37288
 20
55.06428
  0
VERTEX
  8
PTS2DXF
  6
CONTINUOUS
 10
10.37459
 20
55.06103
  0
VERTEX
  8
PTS2DXF
  6
CONTINUOUS
 10
10.36841
 20
55.05847
  0
VERTEX
  8
PTS2DXF
  6
CONTINUOUS
 10
10.36237
 20
55.05293
  0
VERTEX
  8
PTS2DXF
  6
CONTINUOUS
 10
10.3527
 20
55.05137
  0
VERTEX
  8
PTS2DXF
  6
CONTINUOUS
 10
10.34499
 20
55.0541
  0
VERTEX
  8
PTS2DXF
  6
CONTINUOUS
 10
10.33694
 20
55.05296
  0
VERTEX
  8
PTS2DXF
  6
CONTINUOUS
 10
10.32592
 20
55.05419
  0
VERTEX
  8
PTS2DXF
  6
CONTINUOUS
 10
10.32339
 20
55.05602
  0
VERTEX
  8
PTS2DXF
  6
CONTINUOUS
 10
10.32068
 20
55.05799
  0
VERTEX
  8
PTS2DXF
  6
CONTINUOUS
 10
10.32325
 20
55.0602
  0
VERTEX
  8
PTS2DXF
  6
CONTINUOUS
 10
10.31803
 20
55.06423
  0
VERTEX
  8
PTS2DXF
  6
CONTINUOUS
 10
10.30355
 20
55.06693
  0
VERTEX
  8
PTS2DXF
  6
CONTINUOUS
 10
10.29913
 20
55.07116
  0
VERTEX
  8
PTS2DXF
  6
CONTINUOUS
 10
10.28994
 20
55.0753
  0
VERTEX
  8
PTS2DXF
  6
CONTINUOUS
 10
10.2876
 20
55.08062
  0
VERTEX
  8
PTS2DXF
  6
CONTINUOUS
 10
10.27907
 20
55.08315
  0
VERTEX
  8
PTS2DXF
  6
CONTINUOUS
 10
10.26526
 20
55.08444
  0
VERTEX
  8
PTS2DXF
  6
CONTINUOUS
 10
10.24289
 20
55.09283
  0
VERTEX
  8
PTS2DXF
  6
CONTINUOUS
 10
10.23112
 20
55.09955
  0
VERTEX
  8
PTS2DXF
  6
CONTINUOUS
 10
10.21745
 20
55.09787
  0
VERTEX
  8
PTS2DXF
  6
CONTINUOUS
 10
10.21129
 20
55.09552
  0
VERTEX
  8
PTS2DXF
  6
CONTINUOUS
 10
10.227
 20
55.08824
  0
VERTEX
  8
PTS2DXF
  6
CONTINUOUS
 10
10.23169
 20
55.0776
  0
VERTEX
  8
PTS2DXF
  6
CONTINUOUS
 10
10.21756
 20
55.07022
  0
VERTEX
  8
PTS2DXF
  6
CONTINUOUS
 10
10.21282
 20
55.06578
  0
VERTEX
  8
PTS2DXF
  6
CONTINUOUS
 10
10.21282
 20
55.06578
  0
VERTEX
  8
PTS2DXF
  6
CONTINUOUS
 10
10.21653
 20
55.06248
  0
VERTEX
  8
PTS2DXF
  6
CONTINUOUS
 10
10.21113
 20
55.05965
  0
VERTEX
  8
PTS2DXF
  6
CONTINUOUS
 10
10.20405
 20
55.06053
  0
VERTEX
  8
PTS2DXF
  6
CONTINUOUS
 10
10.19878
 20
55.0641
  0
VERTEX
  8
PTS2DXF
  6
CONTINUOUS
 10
10.19862
 20
55.06708
  0
VERTEX
  8
PTS2DXF
  6
CONTINUOUS
 10
10.18847
 20
55.079
  0
VERTEX
  8
PTS2DXF
  6
CONTINUOUS
 10
10.18034
 20
55.07903
  0
VERTEX
  8
PTS2DXF
  6
CONTINUOUS
 10
10.16939
 20
55.07906
  0
VERTEX
  8
PTS2DXF
  6
CONTINUOUS
 10
10.15608
 20
55.0817
  0
VERTEX
  8
PTS2DXF
  6
CONTINUOUS
 10
10.1404
 20
55.08944
  0
VERTEX
  8
PTS2DXF
  6
CONTINUOUS
 10
10.13173
 20
55.09035
  0
VERTEX
  8
PTS2DXF
  6
CONTINUOUS
 10
10.11923
 20
55.08817
  0
VERTEX
  8
PTS2DXF
  6
CONTINUOUS
 10
10.10764
 20
55.08254
  0
VERTEX
  8
PTS2DXF
  6
CONTINUOUS
 10
10.08811
 20
55.07689
  0
VERTEX
  8
PTS2DXF
  6
CONTINUOUS
 10
10.07891
 20
55.07621
  0
VERTEX
  8
PTS2DXF
  6
CONTINUOUS
 10
10.07587
 20
55.07789
  0
VERTEX
  8
PTS2DXF
  6
CONTINUOUS
 10
10.07354
 20
55.08366
  0
VERTEX
  8
PTS2DXF
  6
CONTINUOUS
 10
10.07476
 20
55.08912
  0
VERTEX
  8
PTS2DXF
  6
CONTINUOUS
 10
10.08349
 20
55.09894
  0
VERTEX
  8
PTS2DXF
  6
CONTINUOUS
 10
10.0849
 20
55.10667
  0
VERTEX
  8
PTS2DXF
  6
CONTINUOUS
 10
10.08947
 20
55.10906
  0
VERTEX
  8
PTS2DXF
  6
CONTINUOUS
 10
10.09629
 20
55.10979
  0
VERTEX
  8
PTS2DXF
  6
CONTINUOUS
 10
10.09764
 20
55.10679
  0
VERTEX
  8
PTS2DXF
  6
CONTINUOUS
 10
10.10481
 20
55.10683
  0
VERTEX
  8
PTS2DXF
  6
CONTINUOUS
 10
10.10939
 20
55.10945
  0
VERTEX
  8
PTS2DXF
  6
CONTINUOUS
 10
10.11647
 20
55.11746
  0
VERTEX
  8
PTS2DXF
  6
CONTINUOUS
 10
10.11945
 20
55.12083
  0
VERTEX
  8
PTS2DXF
  6
CONTINUOUS
 10
10.12268
 20
55.12143
  0
VERTEX
  8
PTS2DXF
  6
CONTINUOUS
 10
10.12553
 20
55.11724
  0
VERTEX
  8
PTS2DXF
  6
CONTINUOUS
 10
10.12921
 20
55.11852
  0
VERTEX
  8
PTS2DXF
  6
CONTINUOUS
 10
10.13513
 20
55.1179
  0
VERTEX
  8
PTS2DXF
  6
CONTINUOUS
 10
10.14184
 20
55.12207
  0
VERTEX
  8
PTS2DXF
  6
CONTINUOUS
 10
10.14695
 20
55.12124
  0
VERTEX
  8
PTS2DXF
  6
CONTINUOUS
 10
10.14908
 20
55.12301
  0
VERTEX
  8
PTS2DXF
  6
CONTINUOUS
 10
10.15388
 20
55.12334
  0
VERTEX
  8
PTS2DXF
  6
CONTINUOUS
 10
10.15975
 20
55.12204
  0
VERTEX
  8
PTS2DXF
  6
CONTINUOUS
 10
10.16681
 20
55.12574
  0
VERTEX
  8
PTS2DXF
  6
CONTINUOUS
 10
10.17534
 20
55.12779
  0
VERTEX
  8
PTS2DXF
  6
CONTINUOUS
 10
10.17469
 20
55.12964
  0
VERTEX
  8
PTS2DXF
  6
CONTINUOUS
 10
10.1646
 20
55.13288
  0
VERTEX
  8
PTS2DXF
  6
CONTINUOUS
 10
10.1601
 20
55.14122
  0
VERTEX
  8
PTS2DXF
  6
CONTINUOUS
 10
10.15365
 20
55.14505
  0
VERTEX
  8
PTS2DXF
  6
CONTINUOUS
 10
10.14568
 20
55.15486
  0
VERTEX
  8
PTS2DXF
  6
CONTINUOUS
 10
10.13989
 20
55.15227
  0
VERTEX
  8
PTS2DXF
  6
CONTINUOUS
 10
10.13513
 20
55.15742
  0
VERTEX
  8
PTS2DXF
  6
CONTINUOUS
 10
10.13653
 20
55.16492
  0
VERTEX
  8
PTS2DXF
  6
CONTINUOUS
 10
10.12469
 20
55.1762
  0
VERTEX
  8
PTS2DXF
  6
CONTINUOUS
 10
10.11886
 20
55.18801
  0
VERTEX
  8
PTS2DXF
  6
CONTINUOUS
 10
10.11233
 20
55.19115
  0
VERTEX
  8
PTS2DXF
  6
CONTINUOUS
 10
10.1022
 20
55.18411
  0
VERTEX
  8
PTS2DXF
  6
CONTINUOUS
 10
10.09743
 20
55.18423
  0
VERTEX
  8
PTS2DXF
  6
CONTINUOUS
 10
10.09054
 20
55.17779
  0
VERTEX
  8
PTS2DXF
  6
CONTINUOUS
 10
10.08524
 20
55.17633
  0
VERTEX
  8
PTS2DXF
  6
CONTINUOUS
 10
10.06127
 20
55.17675
  0
VERTEX
  8
PTS2DXF
  6
CONTINUOUS
 10
10.05858
 20
55.1768
  0
VERTEX
  8
PTS2DXF
  6
CONTINUOUS
 10
10.03747
 20
55.18191
  0
VERTEX
  8
PTS2DXF
  6
CONTINUOUS
 10
10.02316
 20
55.18251
  0
VERTEX
  8
PTS2DXF
  6
CONTINUOUS
 10
10.02021
 20
55.18555
  0
VERTEX
  8
PTS2DXF
  6
CONTINUOUS
 10
10.02415
 20
55.19002
  0
VERTEX
  8
PTS2DXF
  6
CONTINUOUS
 10
10.02208
 20
55.19419
  0
VERTEX
  8
PTS2DXF
  6
CONTINUOUS
 10
10.01638
 20
55.19776
  0
VERTEX
  8
PTS2DXF
  6
CONTINUOUS
 10
10
 20
55.20118
  0
VERTEX
  8
PTS2DXF
  6
CONTINUOUS
 10
9.995192
 20
55.20218
  0
VERTEX
  8
PTS2DXF
  6
CONTINUOUS
 10
9.994148
 20
55.19901
  0
VERTEX
  8
PTS2DXF
  6
CONTINUOUS
 10
10
 20
55.19426
  0
VERTEX
  8
PTS2DXF
  6
CONTINUOUS
 10
10.00315
 20
55.1917
  0
VERTEX
  8
PTS2DXF
  6
CONTINUOUS
 10
10.00711
 20
55.19137
  0
VERTEX
  8
PTS2DXF
  6
CONTINUOUS
 10
10.00773
 20
55.18907
  0
VERTEX
  8
PTS2DXF
  6
CONTINUOUS
 10
10
 20
55.18541
  0
VERTEX
  8
PTS2DXF
  6
CONTINUOUS
 10
9.999043
 20
55.18496
  0
VERTEX
  8
PTS2DXF
  6
CONTINUOUS
 10
9.991245
 20
55.18721
  0
VERTEX
  8
PTS2DXF
  6
CONTINUOUS
 10
9.991339
 20
55.17807
  0
VERTEX
  8
PTS2DXF
  6
CONTINUOUS
 10
9.997152
 20
55.18112
  0
VERTEX
  8
PTS2DXF
  6
CONTINUOUS
 10
9.998497
 20
55.17789
  0
VERTEX
  8
PTS2DXF
  6
CONTINUOUS
 10
9.995017
 20
55.17409
  0
VERTEX
  8
PTS2DXF
  6
CONTINUOUS
 10
9.999057
 20
55.16965
  0
VERTEX
  8
PTS2DXF
  6
CONTINUOUS
 10
10
 20
55.16911
  0
VERTEX
  8
PTS2DXF
  6
CONTINUOUS
 10
10.0166
 20
55.15961
  0
VERTEX
  8
PTS2DXF
  6
CONTINUOUS
 10
10.01919
 20
55.15668
  0
VERTEX
  8
PTS2DXF
  6
CONTINUOUS
 10
10.02136
 20
55.15423
  0
VERTEX
  8
PTS2DXF
  6
CONTINUOUS
 10
10.03198
 20
55.14734
  0
VERTEX
  8
PTS2DXF
  6
CONTINUOUS
 10
10.04297
 20
55.13517
  0
VERTEX
  8
PTS2DXF
  6
CONTINUOUS
 10
10.04353
 20
55.13219
  0
VERTEX
  8
PTS2DXF
  6
CONTINUOUS
 10
10.03946
 20
55.1259
  0
VERTEX
  8
PTS2DXF
  6
CONTINUOUS
 10
10.03159
 20
55.12199
  0
VERTEX
  8
PTS2DXF
  6
CONTINUOUS
 10
10.01887
 20
55.12209
  0
VERTEX
  8
PTS2DXF
  6
CONTINUOUS
 10
10.00704
 20
55.12354
  0
VERTEX
  8
PTS2DXF
  6
CONTINUOUS
 10
10
 20
55.12618
  0
VERTEX
  8
PTS2DXF
  6
CONTINUOUS
 10
9.984219
 20
55.13211
  0
VERTEX
  8
PTS2DXF
  6
CONTINUOUS
 10
9.978142
 20
55.13592
  0
VERTEX
  8
PTS2DXF
  6
CONTINUOUS
 10
9.991779
 20
55.14243
  0
VERTEX
  8
PTS2DXF
  6
CONTINUOUS
 10
9.993482
 20
55.14901
  0
VERTEX
  8
PTS2DXF
  6
CONTINUOUS
 10
9.991313
 20
55.15705
  0
VERTEX
  8
PTS2DXF
  6
CONTINUOUS
 10
9.983788
 20
55.16798
  0
VERTEX
  8
PTS2DXF
  6
CONTINUOUS
 10
9.985975
 20
55.17569
  0
VERTEX
  8
PTS2DXF
  6
CONTINUOUS
 10
9.984389
 20
55.18016
  0
VERTEX
  8
PTS2DXF
  6
CONTINUOUS
 10
9.983683
 20
55.18215
  0
VERTEX
  8
PTS2DXF
  6
CONTINUOUS
 10
9.985179
 20
55.19125
  0
VERTEX
  8
PTS2DXF
  6
CONTINUOUS
 10
9.990557
 20
55.20413
  0
VERTEX
  8
PTS2DXF
  6
CONTINUOUS
 10
9.988157
 20
55.20921
  0
VERTEX
  8
PTS2DXF
  6
CONTINUOUS
 10
9.972053
 20
55.21762
  0
VERTEX
  8
PTS2DXF
  6
CONTINUOUS
 10
9.949465
 20
55.21955
  0
VERTEX
  8
PTS2DXF
  6
CONTINUOUS
 10
9.94339
 20
55.21834
  0
VERTEX
  8
PTS2DXF
  6
CONTINUOUS
 10
9.933473
 20
55.21904
  0
VERTEX
  8
PTS2DXF
  6
CONTINUOUS
 10
9.927291
 20
55.22171
  0
VERTEX
  8
PTS2DXF
  6
CONTINUOUS
 10
9.921229
 20
55.23122
  0
VERTEX
  8
PTS2DXF
  6
CONTINUOUS
 10
9.904287
 20
55.23941
  0
VERTEX
  8
PTS2DXF
  6
CONTINUOUS
 10
9.894103
 20
55.24194
  0
VERTEX
  8
PTS2DXF
  6
CONTINUOUS
 10
9.900414
 20
55.25161
  0
VERTEX
  8
PTS2DXF
  6
CONTINUOUS
 10
9.896908
 20
55.25809
  0
VERTEX
  8
PTS2DXF
  6
CONTINUOUS
 10
9.88871
 20
55.26057
  0
VERTEX
  8
PTS2DXF
  6
CONTINUOUS
 10
9.884247
 20
55.26467
  0
VERTEX
  8
PTS2DXF
  6
CONTINUOUS
 10
9.883852
 20
55.26503
  0
VERTEX
  8
PTS2DXF
  6
CONTINUOUS
 10
9.890571
 20
55.26944
  0
VERTEX
  8
PTS2DXF
  6
CONTINUOUS
 10
9.892643
 20
55.27578
  0
VERTEX
  8
PTS2DXF
  6
CONTINUOUS
 10
9.892565
 20
55.31209
  0
VERTEX
  8
PTS2DXF
  6
CONTINUOUS
 10
9.888596
 20
55.32315
  0
VERTEX
  8
PTS2DXF
  6
CONTINUOUS
 10
9.882254
 20
55.32924
  0
VERTEX
  8
PTS2DXF
  6
CONTINUOUS
 10
9.878474
 20
55.33755
  0
VERTEX
  8
PTS2DXF
  6
CONTINUOUS
 10
9.878781
 20
55.34166
  0
VERTEX
  8
PTS2DXF
  6
CONTINUOUS
 10
9.882841
 20
55.34247
  0
VERTEX
  8
PTS2DXF
  6
CONTINUOUS
 10
9.892831
 20
55.33698
  0
VERTEX
  8
PTS2DXF
  6
CONTINUOUS
 10
9.897656
 20
55.33731
  0
VERTEX
  8
PTS2DXF
  6
CONTINUOUS
 10
9.899823
 20
55.33954
  0
VERTEX
  8
PTS2DXF
  6
CONTINUOUS
 10
9.897701
 20
55.34325
  0
VERTEX
  8
PTS2DXF
  6
CONTINUOUS
 10
9.884227
 20
55.34495
  0
VERTEX
  8
PTS2DXF
  6
CONTINUOUS
 10
9.880422
 20
55.34755
  0
VERTEX
  8
PTS2DXF
  6
CONTINUOUS
 10
9.874924
 20
55.35431
  0
VERTEX
  8
PTS2DXF
  6
CONTINUOUS
 10
9.878392
 20
55.35788
  0
VERTEX
  8
PTS2DXF
  6
CONTINUOUS
 10
9.875365
 20
55.36024
  0
VERTEX
  8
PTS2DXF
  6
CONTINUOUS
 10
9.869731
 20
55.35444
  0
VERTEX
  8
PTS2DXF
  6
CONTINUOUS
 10
9.862355
 20
55.35211
  0
VERTEX
  8
PTS2DXF
  6
CONTINUOUS
 10
9.860151
 20
55.35207
  0
VERTEX
  8
PTS2DXF
  6
CONTINUOUS
 10
9.851538
 20
55.35191
  0
VERTEX
  8
PTS2DXF
  6
CONTINUOUS
 10
9.837226
 20
55.35317
  0
VERTEX
  8
PTS2DXF
  6
CONTINUOUS
 10
9.814809
 20
55.35851
  0
VERTEX
  8
PTS2DXF
  6
CONTINUOUS
 10
9.800776
 20
55.36364
  0
VERTEX
  8
PTS2DXF
  6
CONTINUOUS
 10
9.791587
 20
55.36385
  0
VERTEX
  8
PTS2DXF
  6
CONTINUOUS
 10
9.78779
 20
55.36668
  0
VERTEX
  8
PTS2DXF
  6
CONTINUOUS
 10
9.788768
 20
55.37465
  0
VERTEX
  8
PTS2DXF
  6
CONTINUOUS
 10
9.792979
 20
55.37752
  0
VERTEX
  8
PTS2DXF
  6
CONTINUOUS
 10
9.817426
 20
55.37785
  0
VERTEX
  8
PTS2DXF
  6
CONTINUOUS
 10
9.838544
 20
55.38191
  0
VERTEX
  8
PTS2DXF
  6
CONTINUOUS
 10
9.842726
 20
55.38432
  0
VERTEX
  8
PTS2DXF
  6
CONTINUOUS
 10
9.845895
 20
55.38927
  0
VERTEX
  8
PTS2DXF
  6
CONTINUOUS
 10
9.843833
 20
55.39388
  0
VERTEX
  8
PTS2DXF
  6
CONTINUOUS
 10
9.834456
 20
55.39708
  0
VERTEX
  8
PTS2DXF
  6
CONTINUOUS
 10
9.820497
 20
55.40883
  0
VERTEX
  8
PTS2DXF
  6
CONTINUOUS
 10
9.807487
 20
55.41165
  0
VERTEX
  8
PTS2DXF
  6
CONTINUOUS
 10
9.806297
 20
55.41191
  0
VERTEX
  8
PTS2DXF
  6
CONTINUOUS
 10
9.791915
 20
55.41248
  0
VERTEX
  8
PTS2DXF
  6
CONTINUOUS
 10
9.79003
 20
55.41412
  0
VERTEX
  8
PTS2DXF
  6
CONTINUOUS
 10
9.799929
 20
55.418
  0
VERTEX
  8
PTS2DXF
  6
CONTINUOUS
 10
9.806747
 20
55.41806
  0
VERTEX
  8
PTS2DXF
  6
CONTINUOUS
 10
9.817331
 20
55.41484
  0
VERTEX
  8
PTS2DXF
  6
CONTINUOUS
 10
9.824582
 20
55.41536
  0
VERTEX
  8
PTS2DXF
  6
CONTINUOUS
 10
9.830034
 20
55.41865
  0
VERTEX
  8
PTS2DXF
  6
CONTINUOUS
 10
9.82852
 20
55.4253
  0
VERTEX
  8
PTS2DXF
  6
CONTINUOUS
 10
9.793921
 20
55.43458
  0
VERTEX
  8
PTS2DXF
  6
CONTINUOUS
 10
9.771443
 20
55.4342
  0
VERTEX
  8
PTS2DXF
  6
CONTINUOUS
 10
9.749913
 20
55.43584
  0
VERTEX
  8
PTS2DXF
  6
CONTINUOUS
 10
9.743835
 20
55.44055
  0
VERTEX
  8
PTS2DXF
  6
CONTINUOUS
 10
9.750714
 20
55.44701
  0
VERTEX
  8
PTS2DXF
  6
CONTINUOUS
 10
9.750094
 20
55.44954
  0
VERTEX
  8
PTS2DXF
  6
CONTINUOUS
 10
9.729989
 20
55.46005
  0
VERTEX
  8
PTS2DXF
  6
CONTINUOUS
 10
9.727455
 20
55.4629
  0
VERTEX
  8
PTS2DXF
  6
CONTINUOUS
 10
9.721074
 20
55.47007
  0
VERTEX
  8
PTS2DXF
  6
CONTINUOUS
 10
9.720868
 20
55.47282
  0
VERTEX
  8
PTS2DXF
  6
CONTINUOUS
 10
9.72385
 20
55.47526
  0
VERTEX
  8
PTS2DXF
  6
CONTINUOUS
 10
9.733778
 20
55.46818
  0
VERTEX
  8
PTS2DXF
  6
CONTINUOUS
 10
9.745116
 20
55.46404
  0
VERTEX
  8
PTS2DXF
  6
CONTINUOUS
 10
9.75659
 20
55.45623
  0
VERTEX
  8
PTS2DXF
  6
CONTINUOUS
 10
9.766536
 20
55.45509
  0
VERTEX
  8
PTS2DXF
  6
CONTINUOUS
 10
9.772882
 20
55.44855
  0
VERTEX
  8
PTS2DXF
  6
CONTINUOUS
 10
9.808881
 20
55.43628
  0
VERTEX
  8
PTS2DXF
  6
CONTINUOUS
 10
9.824523
 20
55.43636
  0
VERTEX
  8
PTS2DXF
  6
CONTINUOUS
 10
9.827008
 20
55.43744
  0
VERTEX
  8
PTS2DXF
  6
CONTINUOUS
 10
9.820673
 20
55.44398
  0
VERTEX
  8
PTS2DXF
  6
CONTINUOUS
 10
9.810865
 20
55.44696
  0
VERTEX
  8
PTS2DXF
  6
CONTINUOUS
 10
9.80716
 20
55.45116
  0
VERTEX
  8
PTS2DXF
  6
CONTINUOUS
 10
9.807462
 20
55.45526
  0
VERTEX
  8
PTS2DXF
  6
CONTINUOUS
 10
9.817923
 20
55.4557
  0
VERTEX
  8
PTS2DXF
  6
CONTINUOUS
 10
9.805842
 20
55.46055
  0
VERTEX
  8
PTS2DXF
  6
CONTINUOUS
 10
9.803441
 20
55.45513
  0
VERTEX
  8
PTS2DXF
  6
CONTINUOUS
 10
9.799271
 20
55.45295
  0
VERTEX
  8
PTS2DXF
  6
CONTINUOUS
 10
9.777108
 20
55.4626
  0
VERTEX
  8
PTS2DXF
  6
CONTINUOUS
 10
9.781711
 20
55.46523
  0
VERTEX
  8
PTS2DXF
  6
CONTINUOUS
 10
9.796365
 20
55.4626
  0
VERTEX
  8
PTS2DXF
  6
CONTINUOUS
 10
9.792323
 20
55.46772
  0
VERTEX
  8
PTS2DXF
  6
CONTINUOUS
 10
9.785915
 20
55.46787
  0
VERTEX
  8
PTS2DXF
  6
CONTINUOUS
 10
9.779469
 20
55.47305
  0
VERTEX
  8
PTS2DXF
  6
CONTINUOUS
 10
9.774097
 20
55.47089
  0
VERTEX
  8
PTS2DXF
  6
CONTINUOUS
 10
9.763232
 20
55.47046
  0
VERTEX
  8
PTS2DXF
  6
CONTINUOUS
 10
9.752229
 20
55.47369
  0
VERTEX
  8
PTS2DXF
  6
CONTINUOUS
 10
9.739963
 20
55.48174
  0
VERTEX
  8
PTS2DXF
  6
CONTINUOUS
 10
9.734064
 20
55.49466
  0
VERTEX
  8
PTS2DXF
  6
CONTINUOUS
 10
9.72778
 20
55.49663
  0
VERTEX
  8
PTS2DXF
  6
CONTINUOUS
 10
9.714232
 20
55.49616
  0
VERTEX
  8
PTS2DXF
  6
CONTINUOUS
 10
9.708058
 20
55.49594
  0
VERTEX
  8
PTS2DXF
  6
CONTINUOUS
 10
9.699017
 20
55.50437
  0
VERTEX
  8
PTS2DXF
  6
CONTINUOUS
 10
9.687984
 20
55.50736
  0
VERTEX
  8
PTS2DXF
  6
CONTINUOUS
 10
9.680588
 20
55.51643
  0
VERTEX
  8
PTS2DXF
  6
CONTINUOUS
 10
9.681583
 20
55.51915
  0
VERTEX
  8
PTS2DXF
  6
CONTINUOUS
 10
9.687373
 20
55.52153
  0
VERTEX
  8
PTS2DXF
  6
CONTINUOUS
 10
9.695058
 20
55.52227
  0
VERTEX
  8
PTS2DXF
  6
CONTINUOUS
 10
9.702214
 20
55.52119
  0
VERTEX
  8
PTS2DXF
  6
CONTINUOUS
 10
9.7331
 20
55.50929
  0
VERTEX
  8
PTS2DXF
  6
CONTINUOUS
 10
9.74346
 20
55.50814
  0
VERTEX
  8
PTS2DXF
  6
CONTINUOUS
 10
9.748755
 20
55.50916
  0
VERTEX
  8
PTS2DXF
  6
CONTINUOUS
 10
9.75832
 20
55.51373
  0
VERTEX
  8
PTS2DXF
  6
CONTINUOUS
 10
9.75982
 20
55.5178
  0
VERTEX
  8
PTS2DXF
  6
CONTINUOUS
 10
9.769351
 20
55.52739
  0
VERTEX
  8
PTS2DXF
  6
CONTINUOUS
 10
9.768317
 20
55.54089
  0
VERTEX
  8
PTS2DXF
  6
CONTINUOUS
 10
9.759851
 20
55.5461
  0
VERTEX
  8
PTS2DXF
  6
CONTINUOUS
 10
9.761555
 20
55.54744
  0
VERTEX
  8
PTS2DXF
  6
CONTINUOUS
 10
9.769907
 20
55.54731
  0
VERTEX
  8
PTS2DXF
  6
CONTINUOUS
 10
9.786454
 20
55.54708
  0
VERTEX
  8
PTS2DXF
  6
CONTINUOUS
 10
9.805113
 20
55.55485
  0
VERTEX
  8
PTS2DXF
  6
CONTINUOUS
 10
9.833931
 20
55.5585
  0
VERTEX
  8
PTS2DXF
  6
CONTINUOUS
 10
9.845102
 20
55.55732
  0
VERTEX
  8
PTS2DXF
  6
CONTINUOUS
 10
9.851672
 20
55.55374
  0
VERTEX
  8
PTS2DXF
  6
CONTINUOUS
 10
9.854957
 20
55.54384
  0
VERTEX
  8
PTS2DXF
  6
CONTINUOUS
 10
9.851233
 20
55.5316
  0
VERTEX
  8
PTS2DXF
  6
CONTINUOUS
 10
9.855137
 20
55.52466
  0
VERTEX
  8
PTS2DXF
  6
CONTINUOUS
 10
9.863867
 20
55.51783
  0
VERTEX
  8
PTS2DXF
  6
CONTINUOUS
 10
9.869746
 20
55.51586
  0
VERTEX
  8
PTS2DXF
  6
CONTINUOUS
 10
9.893633
 20
55.513
  0
VERTEX
  8
PTS2DXF
  6
CONTINUOUS
 10
9.926324
 20
55.51242
  0
VERTEX
  8
PTS2DXF
  6
CONTINUOUS
 10
9.926929
 20
55.51241
  0
VERTEX
  8
PTS2DXF
  6
CONTINUOUS
 10
9.94438
 20
55.51471
  0
VERTEX
  8
PTS2DXF
  6
CONTINUOUS
 10
9.999104
 20
55.54165
  0
VERTEX
  8
PTS2DXF
  6
CONTINUOUS
 10
10
 20
55.54191
  0
VERTEX
  8
PTS2DXF
  6
CONTINUOUS
 10
10.02338
 20
55.5488
  0
VERTEX
  8
PTS2DXF
  6
CONTINUOUS
 10
10.03751
 20
55.55962
  0
VERTEX
  8
PTS2DXF
  6
CONTINUOUS
 10
10.04539
 20
55.56262
  0
VERTEX
  8
PTS2DXF
  6
CONTINUOUS
 10
10.07166
 20
55.56422
  0
VERTEX
  8
PTS2DXF
  6
CONTINUOUS
 10
10.07542
 20
55.56595
  0
VERTEX
  8
PTS2DXF
  6
CONTINUOUS
 10
10.07614
 20
55.57005
  0
VERTEX
  8
PTS2DXF
  6
CONTINUOUS
 10
10.09366
 20
55.57279
  0
VERTEX
  8
PTS2DXF
  6
CONTINUOUS
 10
10.104
 20
55.5771
  0
VERTEX
  8
PTS2DXF
  6
CONTINUOUS
 10
10.10449
 20
55.5773
  0
VERTEX
  8
PTS2DXF
  6
CONTINUOUS
 10
10.11449
 20
55.57658
  0
VERTEX
  8
PTS2DXF
  6
CONTINUOUS
 10
10.1173
 20
55.58153
  0
VERTEX
  8
PTS2DXF
  6
CONTINUOUS
 10
10.12234
 20
55.58414
  0
VERTEX
  8
PTS2DXF
  6
CONTINUOUS
 10
10.12769
 20
55.58057
  0
VERTEX
  8
PTS2DXF
  6
CONTINUOUS
 10
10.141
 20
55.58091
  0
VERTEX
  8
PTS2DXF
  6
CONTINUOUS
 10
10.15762
 20
55.58732
  0
VERTEX
  8
PTS2DXF
  6
CONTINUOUS
 10
10.16815
 20
55.58818
  0
VERTEX
  8
PTS2DXF
  6
CONTINUOUS
 10
10.17731
 20
55.59182
  0
VERTEX
  8
PTS2DXF
  6
CONTINUOUS
 10
10.19911
 20
55.59261
  0
VERTEX
  8
PTS2DXF
  6
CONTINUOUS
 10
10.19143
 20
55.59715
  0
VERTEX
  8
PTS2DXF
  6
CONTINUOUS
 10
10.19248
 20
55.60009
  0
VERTEX
  8
PTS2DXF
  6
CONTINUOUS
 10
10.20469
 20
55.59679
  0
VERTEX
  8
PTS2DXF
  6
CONTINUOUS
 10
10.21241
 20
55.60252
  0
VERTEX
  8
PTS2DXF
  6
CONTINUOUS
 10
10.21863
 20
55.60464
  0
VERTEX
  8
PTS2DXF
  6
CONTINUOUS
 10
10.23828
 20
55.60844
  0
VERTEX
  8
PTS2DXF
  6
CONTINUOUS
 10
10.27304
 20
55.61001
  0
VERTEX
  8
PTS2DXF
  6
CONTINUOUS
 10
10.27656
 20
55.6108
  0
VERTEX
  8
PTS2DXF
  6
CONTINUOUS
 10
10.28577
 20
55.61286
  0
VERTEX
  8
PTS2DXF
  6
CONTINUOUS
 10
10.2921
 20
55.61154
  0
VERTEX
  8
PTS2DXF
  6
CONTINUOUS
 10
10.29313
 20
55.60946
  0
VERTEX
  8
PTS2DXF
  6
CONTINUOUS
 10
10.2863
 20
55.60965
  0
VERTEX
  8
PTS2DXF
  6
CONTINUOUS
 10
10.2837
 20
55.60743
  0
VERTEX
  8
PTS2DXF
  6
CONTINUOUS
 10
10.28792
 20
55.60024
  0
VERTEX
  8
PTS2DXF
  6
CONTINUOUS
 10
10.28336
 20
55.59397
  0
VERTEX
  8
PTS2DXF
  6
CONTINUOUS
 10
10.28435
 20
55.58664
  0
VERTEX
  8
PTS2DXF
  6
CONTINUOUS
 10
10.29519
 20
55.58634
  0
VERTEX
  8
PTS2DXF
  6
CONTINUOUS
 10
10.30711
 20
55.58921
  0
VERTEX
  8
PTS2DXF
  6
CONTINUOUS
 10
10.31671
 20
55.58849
  0
VERTEX
  8
PTS2DXF
  6
CONTINUOUS
 10
10.31925
 20
55.59001
  0
VERTEX
  8
PTS2DXF
  6
CONTINUOUS
 10
10.3187
 20
55.59299
  0
VERTEX
  8
PTS2DXF
  6
CONTINUOUS
 10
10.30776
 20
55.60152
  0
VERTEX
  8
PTS2DXF
  6
CONTINUOUS
 10
10.30988
 20
55.61219
  0
VERTEX
  8
PTS2DXF
  6
CONTINUOUS
 10
10.29834
 20
55.62324
  0
VERTEX
  8
PTS2DXF
  6
CONTINUOUS
 10
10.30261
 20
55.62609
  0
VERTEX
  8
PTS2DXF
  6
CONTINUOUS
 10
10.32619
 20
55.62384
  0
VERTEX
  8
PTS2DXF
  6
CONTINUOUS
 10
10.34086
 20
55.61816
  0
VERTEX
  8
PTS2DXF
  6
CONTINUOUS
 10
10.37062
 20
55.60662
  0
VERTEX
  8
PTS2DXF
  6
CONTINUOUS
 10
10.40053
 20
55.59869
  0
VERTEX
  8
PTS2DXF
  6
CONTINUOUS
 10
10.42703
 20
55.5888
  0
VERTEX
  8
PTS2DXF
  6
CONTINUOUS
 10
10.44483
 20
55.57619
  0
VERTEX
  8
PTS2DXF
  6
CONTINUOUS
 10
10.47263
 20
55.56306
  0
VERTEX
  8
PTS2DXF
  6
CONTINUOUS
 10
10.51907
 20
55.54558
  0
VERTEX
  8
PTS2DXF
  6
CONTINUOUS
 10
10.54498
 20
55.53582
  0
VERTEX
  8
PTS2DXF
  6
CONTINUOUS
 10
10.56625
 20
55.52217
  0
VERTEX
  8
PTS2DXF
  6
CONTINUOUS
 10
10.56636
 20
55.51897
  0
VERTEX
  8
PTS2DXF
  6
CONTINUOUS
 10
10.56166
 20
55.51591
  0
VERTEX
  8
PTS2DXF
  6
CONTINUOUS
 10
10.53831
 20
55.52871
  0
VERTEX
  8
PTS2DXF
  6
CONTINUOUS
 10
10.53523
 20
55.53473
  0
VERTEX
  8
PTS2DXF
  6
CONTINUOUS
 10
10.51763
 20
55.54462
  0
VERTEX
  8
PTS2DXF
  6
CONTINUOUS
 10
10.49446
 20
55.55077
  0
VERTEX
  8
PTS2DXF
  6
CONTINUOUS
 10
10.49303
 20
55.54831
  0
VERTEX
  8
PTS2DXF
  6
CONTINUOUS
 10
10.49988
 20
55.54399
  0
VERTEX
  8
PTS2DXF
  6
CONTINUOUS
 10
10.49272
 20
55.54032
  0
VERTEX
  8
PTS2DXF
  6
CONTINUOUS
 10
10.49774
 20
55.53812
  0
VERTEX
  8
PTS2DXF
  6
CONTINUOUS
 10
10.49714
 20
55.53585
  0
VERTEX
  8
PTS2DXF
  6
CONTINUOUS
 10
10.48685
 20
55.53775
  0
VERTEX
  8
PTS2DXF
  6
CONTINUOUS
 10
10.48204
 20
55.53632
  0
VERTEX
  8
PTS2DXF
  6
CONTINUOUS
 10
10.47777
 20
55.53505
  0
VERTEX
  8
PTS2DXF
  6
CONTINUOUS
 10
10.47474
 20
55.53262
  0
VERTEX
  8
PTS2DXF
  6
CONTINUOUS
 10
10.47565
 20
55.5294
  0
VERTEX
  8
PTS2DXF
  6
CONTINUOUS
 10
10.48803
 20
55.52401
  0
VERTEX
  8
PTS2DXF
  6
CONTINUOUS
 10
10.4866
 20
55.51698
  0
VERTEX
  8
PTS2DXF
  6
CONTINUOUS
 10
10.49432
 20
55.50898
  0
VERTEX
  8
PTS2DXF
  6
CONTINUOUS
 10
10.50309
 20
55.50827
  0
VERTEX
  8
PTS2DXF
  6
CONTINUOUS
 10
10.50859
 20
55.5024
  0
VERTEX
  8
PTS2DXF
  6
CONTINUOUS
 10
10.49863
 20
55.49881
  0
VERTEX
  8
PTS2DXF
  6
CONTINUOUS
 10
10.48815
 20
55.49843
  0
VERTEX
  8
PTS2DXF
  6
CONTINUOUS
 10
10.48339
 20
55.49469
  0
VERTEX
  8
PTS2DXF
  6
CONTINUOUS
 10
10.49272
 20
55.49121
  0
VERTEX
  8
PTS2DXF
  6
CONTINUOUS
 10
10.49041
 20
55.48786
  0
VERTEX
  8
PTS2DXF
  6
CONTINUOUS
 10
10.46825
 20
55.49147
  0
VERTEX
  8
PTS2DXF
  6
CONTINUOUS
 10
10.46181
 20
55.49143
  0
VERTEX
  8
PTS2DXF
  6
CONTINUOUS
 10
10.45641
 20
55.4893
  0
VERTEX
  8
PTS2DXF
  6
CONTINUOUS
 10
10.45882
 20
55.48489
  0
VERTEX
  8
PTS2DXF
  6
CONTINUOUS
 10
10.45688
 20
55.48106
  0
VERTEX
  8
PTS2DXF
  6
CONTINUOUS
 10
10.44817
 20
55.48246
  0
VERTEX
  8
PTS2DXF
  6
CONTINUOUS
 10
10.44478
 20
55.4805
  0
VERTEX
  8
PTS2DXF
  6
CONTINUOUS
 10
10.44562
 20
55.47636
  0
VERTEX
  8
PTS2DXF
  6
CONTINUOUS
 10
10.43327
 20
55.46748
  0
VERTEX
  8
PTS2DXF
  6
CONTINUOUS
 10
10.43765
 20
55.46631
  0
VERTEX
  8
PTS2DXF
  6
CONTINUOUS
 10
10.43887
 20
55.46151
  0
VERTEX
  8
PTS2DXF
  6
CONTINUOUS
 10
10.43256
 20
55.45615
  0
VERTEX
  8
PTS2DXF
  6
CONTINUOUS
 10
10.43249
 20
55.44476
  0
VERTEX
  8
PTS2DXF
  6
CONTINUOUS
 10
10.42813
 20
55.44083
  0
VERTEX
  8
PTS2DXF
  6
CONTINUOUS
 10
10.43575
 20
55.44193
  0
VERTEX
  8
PTS2DXF
  6
CONTINUOUS
 10
10.44317
 20
55.43966
  0
VERTEX
  8
PTS2DXF
  6
CONTINUOUS
 10
10.44763
 20
55.44022
  0
VERTEX
  8
PTS2DXF
  6
CONTINUOUS
 10
10.45578
 20
55.44615
  0
VERTEX
  8
PTS2DXF
  6
CONTINUOUS
 10
10.46024
 20
55.44671
  0
VERTEX
  8
PTS2DXF
  6
CONTINUOUS
 10
10.47142
 20
55.44159
  0
VERTEX
  8
PTS2DXF
  6
CONTINUOUS
 10
10.47704
 20
55.44165
  0
VERTEX
  8
PTS2DXF
  6
CONTINUOUS
 10
10.50278
 20
55.45575
  0
VERTEX
  8
PTS2DXF
  6
CONTINUOUS
 10
10.49387
 20
55.46377
  0
VERTEX
  8
PTS2DXF
  6
CONTINUOUS
 10
10.4857
 20
55.47566
  0
VERTEX
  8
PTS2DXF
  6
CONTINUOUS
 10
10.48706
 20
55.47544
  0
VERTEX
  8
PTS2DXF
  6
CONTINUOUS
 10
10.52447
 20
55.46927
  0
VERTEX
  8
PTS2DXF
  6
CONTINUOUS
 10
10.53214
 20
55.46973
  0
VERTEX
  8
PTS2DXF
  6
CONTINUOUS
 10
10.53795
 20
55.47184
  0
VERTEX
  8
PTS2DXF
  6
CONTINUOUS
 10
10.5398
 20
55.47453
  0
VERTEX
  8
PTS2DXF
  6
CONTINUOUS
 10
10.55898
 20
55.4735
  0
VERTEX
  8
PTS2DXF
  6
CONTINUOUS
 10
10.56585
 20
55.47832
  0
VERTEX
  8
PTS2DXF
  6
CONTINUOUS
 10
10.5727
 20
55.47858
  0
VERTEX
  8
PTS2DXF
  6
CONTINUOUS
 10
10.58576
 20
55.48527
  0
VERTEX
  8
PTS2DXF
  6
CONTINUOUS
 10
10.59737
 20
55.48492
  0
VERTEX
  8
PTS2DXF
  6
CONTINUOUS
 10
10.60795
 20
55.48643
  0
VERTEX
  8
PTS2DXF
  6
CONTINUOUS
 10
10.61476
 20
55.48188
  0
VERTEX
  8
PTS2DXF
  6
CONTINUOUS
 10
10.61925
 20
55.48266
  0
VERTEX
  8
PTS2DXF
  6
CONTINUOUS
 10
10.63104
 20
55.49281
  0
VERTEX
  8
PTS2DXF
  6
CONTINUOUS
 10
10.62472
 20
55.5026
  0
VERTEX
  8
PTS2DXF
  6
CONTINUOUS
 10
10.62521
 20
55.50784
  0
VERTEX
  8
PTS2DXF
  6
CONTINUOUS
 10
10.61871
 20
55.51146
  0
VERTEX
  8
PTS2DXF
  6
CONTINUOUS
 10
10.6086
 20
55.51472
  0
VERTEX
  8
PTS2DXF
  6
CONTINUOUS
 10
10.59998
 20
55.51751
  0
VERTEX
  8
PTS2DXF
  6
CONTINUOUS
 10
10.58077
 20
55.51831
  0
VERTEX
  8
PTS2DXF
  6
CONTINUOUS
 10
10.57688
 20
55.51979
  0
VERTEX
  8
PTS2DXF
  6
CONTINUOUS
 10
10.57213
 20
55.52496
  0
VERTEX
  8
PTS2DXF
  6
CONTINUOUS
 10
10.57534
 20
55.52921
  0
VERTEX
  8
PTS2DXF
  6
CONTINUOUS
 10
10.59044
 20
55.53606
  0
VERTEX
  8
PTS2DXF
  6
CONTINUOUS
 10
10.5996
 20
55.5351
  0
VERTEX
  8
PTS2DXF
  6
CONTINUOUS
 10
10.60462
 20
55.5329
  0
VERTEX
  8
PTS2DXF
  6
CONTINUOUS
 10
10.60808
 20
55.52686
  0
VERTEX
  8
PTS2DXF
  6
CONTINUOUS
 10
10.61747
 20
55.52406
  0
VERTEX
  8
PTS2DXF
  6
CONTINUOUS
 10
10.6262
 20
55.51854
  0
VERTEX
  8
PTS2DXF
  6
CONTINUOUS
 10
10.63264
 20
55.52292
  0
VERTEX
  8
PTS2DXF
  6
CONTINUOUS
 10
10.63315
 20
55.52838
  0
VERTEX
  8
PTS2DXF
  6
CONTINUOUS
 10
10.62906
 20
55.53193
  0
VERTEX
  8
PTS2DXF
  6
CONTINUOUS
 10
10.62231
 20
55.53282
  0
VERTEX
  8
PTS2DXF
  6
CONTINUOUS
 10
10.62011
 20
55.53517
  0
VERTEX
  8
PTS2DXF
  6
CONTINUOUS
 10
10.62605
 20
55.54276
  0
VERTEX
  8
PTS2DXF
  6
CONTINUOUS
 10
10.62531
 20
55.54781
  0
VERTEX
  8
PTS2DXF
  6
CONTINUOUS
 10
10.62042
 20
55.55572
  0
VERTEX
  8
PTS2DXF
  6
CONTINUOUS
 10
10.61007
 20
55.56562
  0
VERTEX
  8
PTS2DXF
  6
CONTINUOUS
 10
10.60997
 20
55.56641
  0
VERTEX
  8
PTS2DXF
  6
CONTINUOUS
 10
10.60891
 20
55.57479
  0
VERTEX
  8
PTS2DXF
  6
CONTINUOUS
 10
10.60236
 20
55.5823
  0
VERTEX
  8
PTS2DXF
  6
CONTINUOUS
 10
10.60012
 20
55.58853
  0
VERTEX
  8
PTS2DXF
  6
CONTINUOUS
 10
10.60726
 20
55.5991
  0
VERTEX
  8
PTS2DXF
  6
CONTINUOUS
 10
10.61372
 20
55.59767
  0
VERTEX
  8
PTS2DXF
  6
CONTINUOUS
 10
10.61344
 20
55.59457
  0
VERTEX
  8
PTS2DXF
  6
CONTINUOUS
 10
10.60631
 20
55.58856
  0
VERTEX
  8
PTS2DXF
  6
CONTINUOUS
 10
10.60893
 20
55.58102
  0
VERTEX
  8
PTS2DXF
  6
CONTINUOUS
 10
10.6233
 20
55.56934
  0
VERTEX
  8
PTS2DXF
  6
CONTINUOUS
 10
10.62676
 20
55.56329
  0
VERTEX
  8
PTS2DXF
  6
CONTINUOUS
 10
10.6318
 20
55.56131
  0
VERTEX
  8
PTS2DXF
  6
CONTINUOUS
 10
10.63815
 20
55.56889
  0
VERTEX
  8
PTS2DXF
  6
CONTINUOUS
 10
10.63583
 20
55.57421
  0
VERTEX
  8
PTS2DXF
  6
CONTINUOUS
 10
10.62721
 20
55.57676
  0
VERTEX
  8
PTS2DXF
  6
CONTINUOUS
 10
10.62905
 20
55.57921
  0
VERTEX
  8
PTS2DXF
  6
CONTINUOUS
 10
10.63716
 20
55.57988
  0
VERTEX
  8
PTS2DXF
  6
CONTINUOUS
 10
10.63225
 20
55.59191
  0
VERTEX
  8
PTS2DXF
  6
CONTINUOUS
 10
10.62741
 20
55.59708
  0
VERTEX
  8
PTS2DXF
  6
CONTINUOUS
 10
10.62675
 20
55.59778
  0
VERTEX
  8
PTS2DXF
  6
CONTINUOUS
 10
10.62448
 20
55.6079
  0
VERTEX
  8
PTS2DXF
  6
CONTINUOUS
 10
10.61689
 20
55.61292
  0
VERTEX
  8
PTS2DXF
  6
CONTINUOUS
 10
10.6116
 20
55.61078
  0
VERTEX
  8
PTS2DXF
  6
CONTINUOUS
 10
10.59654
 20
55.61432
  0
VERTEX
  8
PTS2DXF
  6
CONTINUOUS
 10
10.59151
 20
55.61943
  0
VERTEX
  8
PTS2DXF
  6
CONTINUOUS
 10
10.59737
 20
55.62362
  0
VERTEX
  8
PTS2DXF
  6
CONTINUOUS
 10
10.60252
 20
55.61974
  0
VERTEX
  8
PTS2DXF
  6
CONTINUOUS
 10
10.61726
 20
55.62491
  0
VERTEX
  8
PTS2DXF
  6
CONTINUOUS
 10
10.62159
 20
55.62416
  0
VERTEX
  8
PTS2DXF
  6
CONTINUOUS
 10
10.63592
 20
55.60961
  0
VERTEX
  8
PTS2DXF
  6
CONTINUOUS
 10
10.65357
 20
55.59606
  0
VERTEX
  8
PTS2DXF
  6
CONTINUOUS
 10
10.68182
 20
55.56731
  0
VERTEX
  8
PTS2DXF
  6
CONTINUOUS
 10
10.68479
 20
55.56427
  0
VERTEX
  8
PTS2DXF
  6
CONTINUOUS
 10
10.68847
 20
55.55639
  0
VERTEX
  8
PTS2DXF
  6
CONTINUOUS
 10
10.70807
 20
55.54665
  0
VERTEX
  8
PTS2DXF
  6
CONTINUOUS
 10
10.71168
 20
55.54243
  0
VERTEX
  8
PTS2DXF
  6
CONTINUOUS
 10
10.70789
 20
55.53638
  0
VERTEX
  8
PTS2DXF
  6
CONTINUOUS
 10
10.70904
 20
55.53155
  0
VERTEX
  8
PTS2DXF
  6
CONTINUOUS
 10
10.72287
 20
55.51216
  0
VERTEX
  8
PTS2DXF
  6
CONTINUOUS
 10
10.74448
 20
55.4987
  0
VERTEX
  8
PTS2DXF
  6
CONTINUOUS
 10
10.75436
 20
55.48446
  0
VERTEX
  8
PTS2DXF
  6
CONTINUOUS
 10
10.75273
 20
55.47993
  0
VERTEX
  8
PTS2DXF
  6
CONTINUOUS
 10
10.74441
 20
55.477
  0
VERTEX
  8
PTS2DXF
  6
CONTINUOUS
 10
10.71959
 20
55.47777
  0
VERTEX
  8
PTS2DXF
  6
CONTINUOUS
 10
10.71237
 20
55.47668
  0
VERTEX
  8
PTS2DXF
  6
CONTINUOUS
 10
10.70574
 20
55.47569
  0
VERTEX
  8
PTS2DXF
  6
CONTINUOUS
 10
10.69434
 20
55.46987
  0
VERTEX
  8
PTS2DXF
  6
CONTINUOUS
 10
10.67822
 20
55.46488
  0
VERTEX
  8
PTS2DXF
  6
CONTINUOUS
 10
10.67098
 20
55.46053
  0
VERTEX
  8
PTS2DXF
  6
CONTINUOUS
 10
10.66821
 20
55.45239
  0
VERTEX
  8
PTS2DXF
  6
CONTINUOUS
 10
10.65926
 20
55.45107
  0
VERTEX
  8
PTS2DXF
  6
CONTINUOUS
 10
10.64841
 20
55.45528
  0
VERTEX
  8
PTS2DXF
  6
CONTINUOUS
 10
10.63915
 20
55.45488
  0
VERTEX
  8
PTS2DXF
  6
CONTINUOUS
 10
10.63712
 20
55.45037
  0
VERTEX
  8
PTS2DXF
  6
CONTINUOUS
 10
10.62865
 20
55.44994
  0
VERTEX
  8
PTS2DXF
  6
CONTINUOUS
 10
10.62358
 20
55.45147
  0
VERTEX
  8
PTS2DXF
  6
CONTINUOUS
 10
10.60888
 20
55.46173
  0
VERTEX
  8
PTS2DXF
  6
CONTINUOUS
 10
10.59238
 20
55.46566
  0
VERTEX
  8
PTS2DXF
  6
CONTINUOUS
 10
10.58031
 20
55.46099
  0
VERTEX
  8
PTS2DXF
  6
CONTINUOUS
 10
10.57305
 20
55.46052
  0
VERTEX
  8
PTS2DXF
  6
CONTINUOUS
 10
10.56033
 20
55.45314
  0
VERTEX
  8
PTS2DXF
  6
CONTINUOUS
 10
10.55783
 20
55.44773
  0
VERTEX
  8
PTS2DXF
  6
CONTINUOUS
 10
10.54907
 20
55.44844
  0
VERTEX
  8
PTS2DXF
  6
CONTINUOUS
 10
10.54859
 20
55.44801
  0
VERTEX
  8
PTS2DXF
  6
CONTINUOUS
 10
10.54644
 20
55.44601
  0
VERTEX
  8
PTS2DXF
  6
CONTINUOUS
 10
10.57467
 20
55.42575
  0
VERTEX
  8
PTS2DXF
  6
CONTINUOUS
 10
10.58195
 20
55.42645
  0
VERTEX
  8
PTS2DXF
  6
CONTINUOUS
 10
10.58747
 20
55.42971
  0
VERTEX
  8
PTS2DXF
  6
CONTINUOUS
 10
10.58042
 20
55.45345
  0
VERTEX
  8
PTS2DXF
  6
CONTINUOUS
 10
10.58651
 20
55.45852
  0
VERTEX
  8
PTS2DXF
  6
CONTINUOUS
 10
10.59544
 20
55.45963
  0
VERTEX
  8
PTS2DXF
  6
CONTINUOUS
 10
10.60523
 20
55.45705
  0
VERTEX
  8
PTS2DXF
  6
CONTINUOUS
 10
10.61147
 20
55.45069
  0
VERTEX
  8
PTS2DXF
  6
CONTINUOUS
 10
10.62766
 20
55.44792
  0
VERTEX
  8
PTS2DXF
  6
CONTINUOUS
 10
10.64116
 20
55.44202
  0
VERTEX
  8
PTS2DXF
  6
CONTINUOUS
 10
10.6571
 20
55.44519
  0
VERTEX
  8
PTS2DXF
  6
CONTINUOUS
 10
10.66014
 20
55.44762
  0
VERTEX
  8
PTS2DXF
  6
CONTINUOUS
 10
10.66671
 20
55.44924
  0
VERTEX
  8
PTS2DXF
  6
CONTINUOUS
 10
10.67353
 20
55.44926
  0
VERTEX
  8
PTS2DXF
  6
CONTINUOUS
 10
10.68784
 20
55.44357
  0
VERTEX
  8
PTS2DXF
  6
CONTINUOUS
 10
10.72008
 20
55.41973
  0
VERTEX
  8
PTS2DXF
  6
CONTINUOUS
 10
10.73079
 20
55.41848
  0
VERTEX
  8
PTS2DXF
  6
CONTINUOUS
 10
10.74009
 20
55.40677
  0
VERTEX
  8
PTS2DXF
  6
CONTINUOUS
 10
10.77455
 20
55.38581
  0
VERTEX
  8
PTS2DXF
  6
CONTINUOUS
 10
10.78144
 20
55.37417
  0
VERTEX
  8
PTS2DXF
  6
CONTINUOUS
 10
10.79422
 20
55.36554
  0
VERTEX
  8
PTS2DXF
  6
CONTINUOUS
 10
10.80336
 20
55.3527
  0
VERTEX
  8
PTS2DXF
  6
CONTINUOUS
 10
10.80621
 20
55.34871
  0
VERTEX
  8
PTS2DXF
  6
CONTINUOUS
 10
10.8215
 20
55.31669
  0
VERTEX
  8
PTS2DXF
  6
CONTINUOUS
 10
10.83541
 20
55.30756
  0
VERTEX
  8
PTS2DXF
  6
CONTINUOUS
 10
10.85682
 20
55.29751
  0
VERTEX
  8
PTS2DXF
  6
CONTINUOUS
 10
10.85972
 20
55.29445
  0
VERTEX
  8
PTS2DXF
  6
CONTINUOUS
 10
10.84884
 20
55.28954
  0
VERTEX
  8
PTS2DXF
  6
CONTINUOUS
 10
10.83392
 20
55.28819
  0
VERTEX
  8
PTS2DXF
  6
CONTINUOUS
 10
10.83089
 20
55.28989
  0
VERTEX
  8
PTS2DXF
  6
CONTINUOUS
 10
10.83711
 20
55.2922
  0
VERTEX
  8
PTS2DXF
  6
CONTINUOUS
 10
10.8302
 20
55.29516
  0
VERTEX
  8
PTS2DXF
  6
CONTINUOUS
 10
10.83169
 20
55.29809
  0
VERTEX
  8
PTS2DXF
  6
CONTINUOUS
 10
10.81873
 20
55.30467
  0
VERTEX
  8
PTS2DXF
  6
CONTINUOUS
 10
10.79324
 20
55.30982
  0
SEQEND
  0
POLYLINE
100
AcDb2dPolyline
 66
1
  8
PTS2DXF
  6
CONTINUOUS
 10
0
 20
0
 70
0
  0
VERTEX
  8
PTS2DXF
  6
CONTINUOUS
 10
10.32853
 20
56.98602
  0
VERTEX
  8
PTS2DXF
  6
CONTINUOUS
 10
10.31654
 20
56.98023
  0
VERTEX
  8
PTS2DXF
  6
CONTINUOUS
 10
10.31654
 20
56.98023
  0
VERTEX
  8
PTS2DXF
  6
CONTINUOUS
 10
10.30932
 20
56.96693
  0
VERTEX
  8
PTS2DXF
  6
CONTINUOUS
 10
10.30108
 20
56.96185
  0
VERTEX
  8
PTS2DXF
  6
CONTINUOUS
 10
10.29254
 20
56.95174
  0
VERTEX
  8
PTS2DXF
  6
CONTINUOUS
 10
10.30088
 20
56.95225
  0
VERTEX
  8
PTS2DXF
  6
CONTINUOUS
 10
10.30384
 20
56.95067
  0
VERTEX
  8
PTS2DXF
  6
CONTINUOUS
 10
10.30347
 20
56.94838
  0
VERTEX
  8
PTS2DXF
  6
CONTINUOUS
 10
10.28673
 20
56.93182
  0
VERTEX
  8
PTS2DXF
  6
CONTINUOUS
 10
10.27941
 20
56.90594
  0
VERTEX
  8
PTS2DXF
  6
CONTINUOUS
 10
10.27934
 20
56.90502
  0
VERTEX
  8
PTS2DXF
  6
CONTINUOUS
 10
10.27659
 20
56.86571
  0
VERTEX
  8
PTS2DXF
  6
CONTINUOUS
 10
10.27806
 20
56.83875
  0
VERTEX
  8
PTS2DXF
  6
CONTINUOUS
 10
10.29396
 20
56.78013
  0
VERTEX
  8
PTS2DXF
  6
CONTINUOUS
 10
10.30158
 20
56.75573
  0
VERTEX
  8
PTS2DXF
  6
CONTINUOUS
 10
10.31057
 20
56.74368
  0
VERTEX
  8
PTS2DXF
  6
CONTINUOUS
 10
10.32624
 20
56.72939
  0
VERTEX
  8
PTS2DXF
  6
CONTINUOUS
 10
10.33888
 20
56.72078
  0
VERTEX
  8
PTS2DXF
  6
CONTINUOUS
 10
10.33701
 20
56.71095
  0
VERTEX
  8
PTS2DXF
  6
CONTINUOUS
 10
10.32964
 20
56.70656
  0
VERTEX
  8
PTS2DXF
  6
CONTINUOUS
 10
10.30592
 20
56.71006
  0
VERTEX
  8
PTS2DXF
  6
CONTINUOUS
 10
10.28189
 20
56.70922
  0
VERTEX
  8
PTS2DXF
  6
CONTINUOUS
 10
10.2665
 20
56.71095
  0
VERTEX
  8
PTS2DXF
  6
CONTINUOUS
 10
10.25658
 20
56.70951
  0
VERTEX
  8
PTS2DXF
  6
CONTINUOUS
 10
10.2462
 20
56.70989
  0
VERTEX
  8
PTS2DXF
  6
CONTINUOUS
 10
10.23286
 20
56.71277
  0
VERTEX
  8
PTS2DXF
  6
CONTINUOUS
 10
10.22499
 20
56.71226
  0
VERTEX
  8
PTS2DXF
  6
CONTINUOUS
 10
10.20615
 20
56.70253
  0
VERTEX
  8
PTS2DXF
  6
CONTINUOUS
 10
10.18962
 20
56.7011
  0
VERTEX
  8
PTS2DXF
  6
CONTINUOUS
 10
10.18962
 20
56.7011
  0
VERTEX
  8
PTS2DXF
  6
CONTINUOUS
 10
10.19354
 20
56.68899
  0
VERTEX
  8
PTS2DXF
  6
CONTINUOUS
 10
10.19354
 20
56.68899
  0
VERTEX
  8
PTS2DXF
  6
CONTINUOUS
 10
10.20301
 20
56.67897
  0
VERTEX
  8
PTS2DXF
  6
CONTINUOUS
 10
10.20718
 20
56.67809
  0
VERTEX
  8
PTS2DXF
  6
CONTINUOUS
 10
10.21709
 20
56.67953
  0
VERTEX
  8
PTS2DXF
  6
CONTINUOUS
 10
10.25238
 20
56.6944
  0
VERTEX
  8
PTS2DXF
  6
CONTINUOUS
 10
10.25901
 20
56.69467
  0
VERTEX
  8
PTS2DXF
  6
CONTINUOUS
 10
10.28273
 20
56.69072
  0
VERTEX
  8
PTS2DXF
  6
CONTINUOUS
 10
10.29264
 20
56.69238
  0
VERTEX
  8
PTS2DXF
  6
CONTINUOUS
 10
10.31442
 20
56.70121
  0
VERTEX
  8
PTS2DXF
  6
CONTINUOUS
 10
10.32519
 20
56.70173
  0
VERTEX
  8
PTS2DXF
  6
CONTINUOUS
 10
10.3429
 20
56.69925
  0
VERTEX
  8
PTS2DXF
  6
CONTINUOUS
 10
10.34726
 20
56.69707
  0
VERTEX
  8
PTS2DXF
  6
CONTINUOUS
 10
10.35533
 20
56.68821
  0
VERTEX
  8
PTS2DXF
  6
CONTINUOUS
 10
10.3629
 20
56.66312
  0
VERTEX
  8
PTS2DXF
  6
CONTINUOUS
 10
10.36215
 20
56.659
  0
VERTEX
  8
PTS2DXF
  6
CONTINUOUS
 10
10.34974
 20
56.65847
  0
VERTEX
  8
PTS2DXF
  6
CONTINUOUS
 10
10.34814
 20
56.65572
  0
VERTEX
  8
PTS2DXF
  6
CONTINUOUS
 10
10.35199
 20
56.65003
  0
VERTEX
  8
PTS2DXF
  6
CONTINUOUS
 10
10.36365
 20
56.64668
  0
VERTEX
  8
PTS2DXF
  6
CONTINUOUS
 10
10.365
 20
56.64165
  0
VERTEX
  8
PTS2DXF
  6
CONTINUOUS
 10
10.35467
 20
56.6208
  0
VERTEX
  8
PTS2DXF
  6
CONTINUOUS
 10
10.34851
 20
56.61894
  0
VERTEX
  8
PTS2DXF
  6
CONTINUOUS
 10
10.34731
 20
56.61687
  0
VERTEX
  8
PTS2DXF
  6
CONTINUOUS
 10
10.34731
 20
56.61687
  0
VERTEX
  8
PTS2DXF
  6
CONTINUOUS
 10
10.34427
 20
56.60406
  0
VERTEX
  8
PTS2DXF
  6
CONTINUOUS
 10
10.34825
 20
56.59221
  0
VERTEX
  8
PTS2DXF
  6
CONTINUOUS
 10
10.34825
 20
56.59221
  0
VERTEX
  8
PTS2DXF
  6
CONTINUOUS
 10
10.35278
 20
56.5735
  0
VERTEX
  8
PTS2DXF
  6
CONTINUOUS
 10
10.36165
 20
56.56419
  0
VERTEX
  8
PTS2DXF
  6
CONTINUOUS
 10
10.41435
 20
56.53045
  0
VERTEX
  8
PTS2DXF
  6
CONTINUOUS
 10
10.42809
 20
56.5239
  0
VERTEX
  8
PTS2DXF
  6
CONTINUOUS
 10
10.44303
 20
56.51964
  0
VERTEX
  8
PTS2DXF
  6
CONTINUOUS
 10
10.52243
 20
56.50861
  0
VERTEX
  8
PTS2DXF
  6
CONTINUOUS
 10
10.54801
 20
56.50805
  0
VERTEX
  8
PTS2DXF
  6
CONTINUOUS
 10
10.61518
 20
56.51244
  0
VERTEX
  8
PTS2DXF
  6
CONTINUOUS
 10
10.62258
 20
56.51429
  0
VERTEX
  8
PTS2DXF
  6
CONTINUOUS
 10
10.62898
 20
56.51777
  0
VERTEX
  8
PTS2DXF
  6
CONTINUOUS
 10
10.63487
 20
56.52097
  0
VERTEX
  8
PTS2DXF
  6
CONTINUOUS
 10
10.64558
 20
56.52215
  0
VERTEX
  8
PTS2DXF
  6
CONTINUOUS
 10
10.67734
 20
56.52317
  0
VERTEX
  8
PTS2DXF
  6
CONTINUOUS
 10
10.70702
 20
56.52624
  0
VERTEX
  8
PTS2DXF
  6
CONTINUOUS
 10
10.73261
 20
56.52517
  0
VERTEX
  8
PTS2DXF
  6
CONTINUOUS
 10
10.75484
 20
56.53094
  0
VERTEX
  8
PTS2DXF
  6
CONTINUOUS
 10
10.77256
 20
56.53328
  0
VERTEX
  8
PTS2DXF
  6
CONTINUOUS
 10
10.79154
 20
56.53447
  0
VERTEX
  8
PTS2DXF
  6
CONTINUOUS
 10
10.83411
 20
56.52634
  0
VERTEX
  8
PTS2DXF
  6
CONTINUOUS
 10
10.84552
 20
56.5224
  0
VERTEX
  8
PTS2DXF
  6
CONTINUOUS
 10
10.86307
 20
56.51634
  0
VERTEX
  8
PTS2DXF
  6
CONTINUOUS
 10
10.87178
 20
56.50973
  0
VERTEX
  8
PTS2DXF
  6
CONTINUOUS
 10
10.87636
 20
56.50266
  0
VERTEX
  8
PTS2DXF
  6
CONTINUOUS
 10
10.87934
 20
56.48873
  0
VERTEX
  8
PTS2DXF
  6
CONTINUOUS
 10
10.88432
 20
56.48462
  0
VERTEX
  8
PTS2DXF
  6
CONTINUOUS
 10
10.93761
 20
56.46026
  0
VERTEX
  8
PTS2DXF
  6
CONTINUOUS
 10
10.9558
 20
56.44635
  0
VERTEX
  8
PTS2DXF
  6
CONTINUOUS
 10
10.95749
 20
56.43675
  0
VERTEX
  8
PTS2DXF
  6
CONTINUOUS
 10
10.96203
 20
56.43379
  0
VERTEX
  8
PTS2DXF
  6
CONTINUOUS
 10
10.95669
 20
56.43081
  0
VERTEX
  8
PTS2DXF
  6
CONTINUOUS
 10
10.94566
 20
56.42923
  0
VERTEX
  8
PTS2DXF
  6
CONTINUOUS
 10
10.94065
 20
56.42851
  0
VERTEX
  8
PTS2DXF
  6
CONTINUOUS
 10
10.93408
 20
56.42553
  0
VERTEX
  8
PTS2DXF
  6
CONTINUOUS
 10
10.92633
 20
56.41273
  0
VERTEX
  8
PTS2DXF
  6
CONTINUOUS
 10
10.9235
 20
56.40291
  0
VERTEX
  8
PTS2DXF
  6
CONTINUOUS
 10
10.91916
 20
56.36932
  0
VERTEX
  8
PTS2DXF
  6
CONTINUOUS
 10
10.91811
 20
56.33598
  0
VERTEX
  8
PTS2DXF
  6
CONTINUOUS
 10
10.89972
 20
56.32293
  0
VERTEX
  8
PTS2DXF
  6
CONTINUOUS
 10
10.89484
 20
56.31539
  0
VERTEX
  8
PTS2DXF
  6
CONTINUOUS
 10
10.87646
 20
56.30325
  0
VERTEX
  8
PTS2DXF
  6
CONTINUOUS
 10
10.8671
 20
56.2925
  0
VERTEX
  8
PTS2DXF
  6
CONTINUOUS
 10
10.85755
 20
56.28949
  0
VERTEX
  8
PTS2DXF
  6
CONTINUOUS
 10
10.85033
 20
56.28722
  0
VERTEX
  8
PTS2DXF
  6
CONTINUOUS
 10
10.84216
 20
56.28241
  0
VERTEX
  8
PTS2DXF
  6
CONTINUOUS
 10
10.82756
 20
56.26273
  0
VERTEX
  8
PTS2DXF
  6
CONTINUOUS
 10
10.81213
 20
56.24649
  0
VERTEX
  8
PTS2DXF
  6
CONTINUOUS
 10
10.79664
 20
56.23846
  0
VERTEX
  8
PTS2DXF
  6
CONTINUOUS
 10
10.76523
 20
56.22696
  0
VERTEX
  8
PTS2DXF
  6
CONTINUOUS
 10
10.75342
 20
56.22076
  0
VERTEX
  8
PTS2DXF
  6
CONTINUOUS
 10
10.74411
 20
56.21091
  0
VERTEX
  8
PTS2DXF
  6
CONTINUOUS
 10
10.74269
 20
56.18945
  0
VERTEX
  8
PTS2DXF
  6
CONTINUOUS
 10
10.74535
 20
56.1689
  0
VERTEX
  8
PTS2DXF
  6
CONTINUOUS
 10
10.74255
 20
56.16341
  0
VERTEX
  8
PTS2DXF
  6
CONTINUOUS
 10
10.72876
 20
56.1531
  0
VERTEX
  8
PTS2DXF
  6
CONTINUOUS
 10
10.71666
 20
56.13958
  0
VERTEX
  8
PTS2DXF
  6
CONTINUOUS
 10
10.70406
 20
56.13452
  0
VERTEX
  8
PTS2DXF
  6
CONTINUOUS
 10
10.69628
 20
56.13655
  0
VERTEX
  8
PTS2DXF
  6
CONTINUOUS
 10
10.68347
 20
56.14907
  0
VERTEX
  8
PTS2DXF
  6
CONTINUOUS
 10
10.65424
 20
56.16724
  0
VERTEX
  8
PTS2DXF
  6
CONTINUOUS
 10
10.64719
 20
56.17566
  0
VERTEX
  8
PTS2DXF
  6
CONTINUOUS
 10
10.64673
 20
56.17908
  0
VERTEX
  8
PTS2DXF
  6
CONTINUOUS
 10
10.64998
 20
56.18092
  0
VERTEX
  8
PTS2DXF
  6
CONTINUOUS
 10
10.66187
 20
56.17823
  0
VERTEX
  8
PTS2DXF
  6
CONTINUOUS
 10
10.6688
 20
56.17962
  0
VERTEX
  8
PTS2DXF
  6
CONTINUOUS
 10
10.67731
 20
56.18559
  0
VERTEX
  8
PTS2DXF
  6
CONTINUOUS
 10
10.68329
 20
56.19839
  0
VERTEX
  8
PTS2DXF
  6
CONTINUOUS
 10
10.68158
 20
56.20501
  0
VERTEX
  8
PTS2DXF
  6
CONTINUOUS
 10
10.67536
 20
56.21184
  0
VERTEX
  8
PTS2DXF
  6
CONTINUOUS
 10
10.66465
 20
56.21729
  0
VERTEX
  8
PTS2DXF
  6
CONTINUOUS
 10
10.65358
 20
56.21976
  0
VERTEX
  8
PTS2DXF
  6
CONTINUOUS
 10
10.64416
 20
56.22081
  0
VERTEX
  8
PTS2DXF
  6
CONTINUOUS
 10
10.62571
 20
56.22285
  0
VERTEX
  8
PTS2DXF
  6
CONTINUOUS
 10
10.61713
 20
56.22145
  0
VERTEX
  8
PTS2DXF
  6
CONTINUOUS
 10
10.59725
 20
56.2095
  0
VERTEX
  8
PTS2DXF
  6
CONTINUOUS
 10
10.58961
 20
56.20033
  0
VERTEX
  8
PTS2DXF
  6
CONTINUOUS
 10
10.58887
 20
56.19439
  0
VERTEX
  8
PTS2DXF
  6
CONTINUOUS
 10
10.57587
 20
56.18863
  0
VERTEX
  8
PTS2DXF
  6
CONTINUOUS
 10
10.5727
 20
56.18222
  0
VERTEX
  8
PTS2DXF
  6
CONTINUOUS
 10
10.5577
 20
56.1737
  0
VERTEX
  8
PTS2DXF
  6
CONTINUOUS
 10
10.54844
 20
56.16453
  0
VERTEX
  8
PTS2DXF
  6
CONTINUOUS
 10
10.5445
 20
56.15515
  0
VERTEX
  8
PTS2DXF
  6
CONTINUOUS
 10
10.55164
 20
56.14262
  0
VERTEX
  8
PTS2DXF
  6
CONTINUOUS
 10
10.56192
 20
56.1381
  0
VERTEX
  8
PTS2DXF
  6
CONTINUOUS
 10
10.56459
 20
56.12899
  0
VERTEX
  8
PTS2DXF
  6
CONTINUOUS
 10
10.56794
 20
56.11757
  0
VERTEX
  8
PTS2DXF
  6
CONTINUOUS
 10
10.56687
 20
56.10752
  0
VERTEX
  8
PTS2DXF
  6
CONTINUOUS
 10
10.56207
 20
56.10088
  0
VERTEX
  8
PTS2DXF
  6
CONTINUOUS
 10
10.55029
 20
56.09785
  0
VERTEX
  8
PTS2DXF
  6
CONTINUOUS
 10
10.53898
 20
56.09072
  0
VERTEX
  8
PTS2DXF
  6
CONTINUOUS
 10
10.53247
 20
56.09001
  0
VERTEX
  8
PTS2DXF
  6
CONTINUOUS
 10
10.52592
 20
56.09158
  0
VERTEX
  8
PTS2DXF
  6
CONTINUOUS
 10
10.51808
 20
56.09679
  0
VERTEX
  8
PTS2DXF
  6
CONTINUOUS
 10
10.49505
 20
56.13231
  0
VERTEX
  8
PTS2DXF
  6
CONTINUOUS
 10
10.49663
 20
56.13551
  0
VERTEX
  8
PTS2DXF
  6
CONTINUOUS
 10
10.50597
 20
56.13829
  0
VERTEX
  8
PTS2DXF
  6
CONTINUOUS
 10
10.52394
 20
56.13815
  0
VERTEX
  8
PTS2DXF
  6
CONTINUOUS
 10
10.5284
 20
56.14023
  0
VERTEX
  8
PTS2DXF
  6
CONTINUOUS
 10
10.53098
 20
56.14516
  0
VERTEX
  8
PTS2DXF
  6
CONTINUOUS
 10
10.53474
 20
56.15236
  0
VERTEX
  8
PTS2DXF
  6
CONTINUOUS
 10
10.53625
 20
56.16059
  0
VERTEX
  8
PTS2DXF
  6
CONTINUOUS
 10
10.53452
 20
56.16629
  0
VERTEX
  8
PTS2DXF
  6
CONTINUOUS
 10
10.51005
 20
56.16344
  0
VERTEX
  8
PTS2DXF
  6
CONTINUOUS
 10
10.50104
 20
56.16476
  0
VERTEX
  8
PTS2DXF
  6
CONTINUOUS
 10
10.47883
 20
56.17265
  0
VERTEX
  8
PTS2DXF
  6
CONTINUOUS
 10
10.46694
 20
56.17487
  0
VERTEX
  8
PTS2DXF
  6
CONTINUOUS
 10
10.45878
 20
56.17414
  0
VERTEX
  8
PTS2DXF
  6
CONTINUOUS
 10
10.43212
 20
56.15687
  0
VERTEX
  8
PTS2DXF
  6
CONTINUOUS
 10
10.40844
 20
56.15651
  0
VERTEX
  8
PTS2DXF
  6
CONTINUOUS
 10
10.39697
 20
56.15804
  0
VERTEX
  8
PTS2DXF
  6
CONTINUOUS
 10
10.38829
 20
56.16302
  0
VERTEX
  8
PTS2DXF
  6
CONTINUOUS
 10
10.38648
 20
56.17195
  0
VERTEX
  8
PTS2DXF
  6
CONTINUOUS
 10
10.38602
 20
56.17419
  0
VERTEX
  8
PTS2DXF
  6
CONTINUOUS
 10
10.37811
 20
56.18123
  0
VERTEX
  8
PTS2DXF
  6
CONTINUOUS
 10
10.36821
 20
56.18574
  0
VERTEX
  8
PTS2DXF
  6
CONTINUOUS
 10
10.35755
 20
56.18727
  0
VERTEX
  8
PTS2DXF
  6
CONTINUOUS
 10
10.35217
 20
56.19043
  0
VERTEX
  8
PTS2DXF
  6
CONTINUOUS
 10
10.35621
 20
56.19274
  0
VERTEX
  8
PTS2DXF
  6
CONTINUOUS
 10
10.37462
 20
56.1924
  0
VERTEX
  8
PTS2DXF
  6
CONTINUOUS
 10
10.38683
 20
56.19521
  0
VERTEX
  8
PTS2DXF
  6
CONTINUOUS
 10
10.41079
 20
56.20403
  0
VERTEX
  8
PTS2DXF
  6
CONTINUOUS
 10
10.41727
 20
56.20749
  0
VERTEX
  8
PTS2DXF
  6
CONTINUOUS
 10
10.42208
 20
56.21277
  0
VERTEX
  8
PTS2DXF
  6
CONTINUOUS
 10
10.43353
 20
56.21306
  0
VERTEX
  8
PTS2DXF
  6
CONTINUOUS
 10
10.44209
 20
56.21493
  0
VERTEX
  8
PTS2DXF
  6
CONTINUOUS
 10
10.44826
 20
56.21314
  0
VERTEX
  8
PTS2DXF
  6
CONTINUOUS
 10
10.4479
 20
56.21017
  0
VERTEX
  8
PTS2DXF
  6
CONTINUOUS
 10
10.44022
 20
56.20556
  0
VERTEX
  8
PTS2DXF
  6
CONTINUOUS
 10
10.43903
 20
56.20304
  0
VERTEX
  8
PTS2DXF
  6
CONTINUOUS
 10
10.44819
 20
56.19464
  0
VERTEX
  8
PTS2DXF
  6
CONTINUOUS
 10
10.46247
 20
56.19654
  0
VERTEX
  8
PTS2DXF
  6
CONTINUOUS
 10
10.46901
 20
56.19432
  0
VERTEX
  8
PTS2DXF
  6
CONTINUOUS
 10
10.47111
 20
56.19361
  0
VERTEX
  8
PTS2DXF
  6
CONTINUOUS
 10
10.47683
 20
56.19365
  0
VERTEX
  8
PTS2DXF
  6
CONTINUOUS
 10
10.48731
 20
56.20238
  0
VERTEX
  8
PTS2DXF
  6
CONTINUOUS
 10
10.48473
 20
56.20967
  0
VERTEX
  8
PTS2DXF
  6
CONTINUOUS
 10
10.47516
 20
56.21922
  0
VERTEX
  8
PTS2DXF
  6
CONTINUOUS
 10
10.47103
 20
56.22102
  0
VERTEX
  8
PTS2DXF
  6
CONTINUOUS
 10
10.46532
 20
56.22031
  0
VERTEX
  8
PTS2DXF
  6
CONTINUOUS
 10
10.46045
 20
56.21777
  0
VERTEX
  8
PTS2DXF
  6
CONTINUOUS
 10
10.45552
 20
56.21888
  0
VERTEX
  8
PTS2DXF
  6
CONTINUOUS
 10
10.45426
 20
56.22071
  0
VERTEX
  8
PTS2DXF
  6
CONTINUOUS
 10
10.47283
 20
56.23496
  0
VERTEX
  8
PTS2DXF
  6
CONTINUOUS
 10
10.48099
 20
56.23683
  0
VERTEX
  8
PTS2DXF
  6
CONTINUOUS
 10
10.49275
 20
56.24328
  0
VERTEX
  8
PTS2DXF
  6
CONTINUOUS
 10
10.49506
 20
56.2522
  0
VERTEX
  8
PTS2DXF
  6
CONTINUOUS
 10
10.4995
 20
56.25611
  0
VERTEX
  8
PTS2DXF
  6
CONTINUOUS
 10
10.51138
 20
56.25594
  0
VERTEX
  8
PTS2DXF
  6
CONTINUOUS
 10
10.51585
 20
56.25847
  0
VERTEX
  8
PTS2DXF
  6
CONTINUOUS
 10
10.51331
 20
56.26325
  0
VERTEX
  8
PTS2DXF
  6
CONTINUOUS
 10
10.52021
 20
56.26717
  0
VERTEX
  8
PTS2DXF
  6
CONTINUOUS
 10
10.52017
 20
56.26968
  0
VERTEX
  8
PTS2DXF
  6
CONTINUOUS
 10
10.51563
 20
56.27126
  0
VERTEX
  8
PTS2DXF
  6
CONTINUOUS
 10
10.50828
 20
56.26985
  0
VERTEX
  8
PTS2DXF
  6
CONTINUOUS
 10
10.50602
 20
56.2706
  0
VERTEX
  8
PTS2DXF
  6
CONTINUOUS
 10
10.49674
 20
56.27368
  0
VERTEX
  8
PTS2DXF
  6
CONTINUOUS
 10
10.48784
 20
56.26701
  0
VERTEX
  8
PTS2DXF
  6
CONTINUOUS
 10
10.47884
 20
56.26628
  0
VERTEX
  8
PTS2DXF
  6
CONTINUOUS
 10
10.47265
 20
56.26854
  0
VERTEX
  8
PTS2DXF
  6
CONTINUOUS
 10
10.47385
 20
56.27037
  0
VERTEX
  8
PTS2DXF
  6
CONTINUOUS
 10
10.48323
 20
56.27293
  0
VERTEX
  8
PTS2DXF
  6
CONTINUOUS
 10
10.48197
 20
56.27497
  0
VERTEX
  8
PTS2DXF
  6
CONTINUOUS
 10
10.46598
 20
56.27512
  0
VERTEX
  8
PTS2DXF
  6
CONTINUOUS
 10
10.46389
 20
56.2774
  0
VERTEX
  8
PTS2DXF
  6
CONTINUOUS
 10
10.4658
 20
56.28494
  0
VERTEX
  8
PTS2DXF
  6
CONTINUOUS
 10
10.46327
 20
56.28904
  0
VERTEX
  8
PTS2DXF
  6
CONTINUOUS
 10
10.45875
 20
56.28993
  0
VERTEX
  8
PTS2DXF
  6
CONTINUOUS
 10
10.45102
 20
56.28646
  0
VERTEX
  8
PTS2DXF
  6
CONTINUOUS
 10
10.43786
 20
56.28822
  0
VERTEX
  8
PTS2DXF
  6
CONTINUOUS
 10
10.42439
 20
56.28541
  0
VERTEX
  8
PTS2DXF
  6
CONTINUOUS
 10
10.40797
 20
56.28623
  0
VERTEX
  8
PTS2DXF
  6
CONTINUOUS
 10
10.40145
 20
56.2846
  0
VERTEX
  8
PTS2DXF
  6
CONTINUOUS
 10
10.38969
 20
56.2779
  0
VERTEX
  8
PTS2DXF
  6
CONTINUOUS
 10
10.39639
 20
56.2704
  0
VERTEX
  8
PTS2DXF
  6
CONTINUOUS
 10
10.38874
 20
56.26374
  0
VERTEX
  8
PTS2DXF
  6
CONTINUOUS
 10
10.37761
 20
56.26396
  0
VERTEX
  8
PTS2DXF
  6
CONTINUOUS
 10
10.37112
 20
56.26409
  0
VERTEX
  8
PTS2DXF
  6
CONTINUOUS
 10
10.35611
 20
56.25669
  0
VERTEX
  8
PTS2DXF
  6
CONTINUOUS
 10
10.35372
 20
56.25325
  0
VERTEX
  8
PTS2DXF
  6
CONTINUOUS
 10
10.35877
 20
56.24666
  0
VERTEX
  8
PTS2DXF
  6
CONTINUOUS
 10
10.34949
 20
56.23998
  0
VERTEX
  8
PTS2DXF
  6
CONTINUOUS
 10
10.35167
 20
56.23383
  0
VERTEX
  8
PTS2DXF
  6
CONTINUOUS
 10
10.34932
 20
56.22856
  0
VERTEX
  8
PTS2DXF
  6
CONTINUOUS
 10
10.34324
 20
56.22578
  0
VERTEX
  8
PTS2DXF
  6
CONTINUOUS
 10
10.32366
 20
56.22269
  0
VERTEX
  8
PTS2DXF
  6
CONTINUOUS
 10
10.31475
 20
56.21852
  0
VERTEX
  8
PTS2DXF
  6
CONTINUOUS
 10
10.29591
 20
56.20104
  0
VERTEX
  8
PTS2DXF
  6
CONTINUOUS
 10
10.2964
 20
56.19739
  0
VERTEX
  8
PTS2DXF
  6
CONTINUOUS
 10
10.28104
 20
56.18906
  0
VERTEX
  8
PTS2DXF
  6
CONTINUOUS
 10
10.26396
 20
56.1853
  0
VERTEX
  8
PTS2DXF
  6
CONTINUOUS
 10
10.25669
 20
56.18113
  0
VERTEX
  8
PTS2DXF
  6
CONTINUOUS
 10
10.25361
 20
56.17592
  0
VERTEX
  8
PTS2DXF
  6
CONTINUOUS
 10
10.24883
 20
56.16783
  0
VERTEX
  8
PTS2DXF
  6
CONTINUOUS
 10
10.23401
 20
56.1554
  0
VERTEX
  8
PTS2DXF
  6
CONTINUOUS
 10
10.2324
 20
56.15424
  0
VERTEX
  8
PTS2DXF
  6
CONTINUOUS
 10
10.23412
 20
56.15105
  0
VERTEX
  8
PTS2DXF
  6
CONTINUOUS
 10
10.239
 20
56.15178
  0
VERTEX
  8
PTS2DXF
  6
CONTINUOUS
 10
10.24112
 20
56.14837
  0
VERTEX
  8
PTS2DXF
  6
CONTINUOUS
 10
10.22642
 20
56.13159
  0
VERTEX
  8
PTS2DXF
  6
CONTINUOUS
 10
10.22857
 20
56.12704
  0
VERTEX
  8
PTS2DXF
  6
CONTINUOUS
 10
10.24778
 20
56.10895
  0
VERTEX
  8
PTS2DXF
  6
CONTINUOUS
 10
10.25529
 20
56.10188
  0
VERTEX
  8
PTS2DXF
  6
CONTINUOUS
 10
10.26254
 20
56.088
  0
VERTEX
  8
PTS2DXF
  6
CONTINUOUS
 10
10.27134
 20
56.0602
  0
VERTEX
  8
PTS2DXF
  6
CONTINUOUS
 10
10.28414
 20
56.03471
  0
VERTEX
  8
PTS2DXF
  6
CONTINUOUS
 10
10.28596
 20
56.02627
  0
VERTEX
  8
PTS2DXF
  6
CONTINUOUS
 10
10.2809
 20
56.01574
  0
VERTEX
  8
PTS2DXF
  6
CONTINUOUS
 10
10.29357
 20
56.01331
  0
VERTEX
  8
PTS2DXF
  6
CONTINUOUS
 10
10.29525
 20
56.01104
  0
VERTEX
  8
PTS2DXF
  6
CONTINUOUS
 10
10.28003
 20
56
  0
VERTEX
  8
PTS2DXF
  6
CONTINUOUS
 10
10.25609
 20
55.99145
  0
VERTEX
  8
PTS2DXF
  6
CONTINUOUS
 10
10.25503
 20
55.98372
  0
VERTEX
  8
PTS2DXF
  6
CONTINUOUS
 10
10.25835
 20
55.97496
  0
VERTEX
  8
PTS2DXF
  6
CONTINUOUS
 10
10.26861
 20
55.9619
  0
VERTEX
  8
PTS2DXF
  6
CONTINUOUS
 10
10.26605
 20
55.95219
  0
VERTEX
  8
PTS2DXF
  6
CONTINUOUS
 10
10.2596
 20
55.92768
  0
VERTEX
  8
PTS2DXF
  6
CONTINUOUS
 10
10.26036
 20
55.91762
  0
VERTEX
  8
PTS2DXF
  6
CONTINUOUS
 10
10.25793
 20
55.9129
  0
VERTEX
  8
PTS2DXF
  6
CONTINUOUS
 10
10.24785
 20
55.91362
  0
VERTEX
  8
PTS2DXF
  6
CONTINUOUS
 10
10.20801
 20
55.88844
  0
VERTEX
  8
PTS2DXF
  6
CONTINUOUS
 10
10.19714
 20
55.88942
  0
VERTEX
  8
PTS2DXF
  6
CONTINUOUS
 10
10.19537
 20
55.88764
  0
VERTEX
  8
PTS2DXF
  6
CONTINUOUS
 10
10.19623
 20
55.87849
  0
VERTEX
  8
PTS2DXF
  6
CONTINUOUS
 10
10.20073
 20
55.86924
  0
VERTEX
  8
PTS2DXF
  6
CONTINUOUS
 10
10.20676
 20
55.86862
  0
VERTEX
  8
PTS2DXF
  6
CONTINUOUS
 10
10.20809
 20
55.86037
  0
VERTEX
  8
PTS2DXF
  6
CONTINUOUS
 10
10.20588
 20
55.85815
  0
VERTEX
  8
PTS2DXF
  6
CONTINUOUS
 10
10.20105
 20
55.8585
  0
VERTEX
  8
PTS2DXF
  6
CONTINUOUS
 10
10.19845
 20
55.85695
  0
VERTEX
  8
PTS2DXF
  6
CONTINUOUS
 10
10.19593
 20
55.85545
  0
VERTEX
  8
PTS2DXF
  6
CONTINUOUS
 10
10.19879
 20
55.84601
  0
VERTEX
  8
PTS2DXF
  6
CONTINUOUS
 10
10.19714
 20
55.84081
  0
VERTEX
  8
PTS2DXF
  6
CONTINUOUS
 10
10.194
 20
55.84203
  0
VERTEX
  8
PTS2DXF
  6
CONTINUOUS
 10
10.18709
 20
55.84175
  0
VERTEX
  8
PTS2DXF
  6
CONTINUOUS
 10
10.16459
 20
55.84874
  0
VERTEX
  8
PTS2DXF
  6
CONTINUOUS
 10
10.14653
 20
55.86063
  0
VERTEX
  8
PTS2DXF
  6
CONTINUOUS
 10
10.14363
 20
55.86481
  0
VERTEX
  8
PTS2DXF
  6
CONTINUOUS
 10
10.14673
 20
55.87295
  0
VERTEX
  8
PTS2DXF
  6
CONTINUOUS
 10
10.14589
 20
55.87753
  0
VERTEX
  8
PTS2DXF
  6
CONTINUOUS
 10
10.14064
 20
55.88269
  0
VERTEX
  8
PTS2DXF
  6
CONTINUOUS
 10
10.13501
 20
55.8833
  0
VERTEX
  8
PTS2DXF
  6
CONTINUOUS
 10
10.13166
 20
55.88202
  0
VERTEX
  8
PTS2DXF
  6
CONTINUOUS
 10
10.12962
 20
55.87682
  0
VERTEX
  8
PTS2DXF
  6
CONTINUOUS
 10
10.12241
 20
55.8729
  0
VERTEX
  8
PTS2DXF
  6
CONTINUOUS
 10
10.11548
 20
55.87741
  0
VERTEX
  8
PTS2DXF
  6
CONTINUOUS
 10
10.11251
 20
55.88571
  0
VERTEX
  8
PTS2DXF
  6
CONTINUOUS
 10
10.08064
 20
55.88739
  0
VERTEX
  8
PTS2DXF
  6
CONTINUOUS
 10
10.0786
 20
55.8875
  0
VERTEX
  8
PTS2DXF
  6
CONTINUOUS
 10
10.06357
 20
55.88218
  0
VERTEX
  8
PTS2DXF
  6
CONTINUOUS
 10
10.0498
 20
55.8823
  0
VERTEX
  8
PTS2DXF
  6
CONTINUOUS
 10
10.04227
 20
55.8793
  0
VERTEX
  8
PTS2DXF
  6
CONTINUOUS
 10
10.0187
 20
55.87852
  0
VERTEX
  8
PTS2DXF
  6
CONTINUOUS
 10
10.01226
 20
55.87914
  0
VERTEX
  8
PTS2DXF
  6
CONTINUOUS
 10
10
 20
55.88309
  0
VERTEX
  8
PTS2DXF
  6
CONTINUOUS
 10
9.992599
 20
55.88169
  0
VERTEX
  8
PTS2DXF
  6
CONTINUOUS
 10
9.975732
 20
55.88371
  0
VERTEX
  8
PTS2DXF
  6
CONTINUOUS
 10
9.97151
 20
55.88153
  0
VERTEX
  8
PTS2DXF
  6
CONTINUOUS
 10
9.964923
 20
55.86983
  0
VERTEX
  8
PTS2DXF
  6
CONTINUOUS
 10
9.970654
 20
55.86535
  0
VERTEX
  8
PTS2DXF
  6
CONTINUOUS
 10
9.966379
 20
55.86249
  0
VERTEX
  8
PTS2DXF
  6
CONTINUOUS
 10
9.951383
 20
55.8624
  0
VERTEX
  8
PTS2DXF
  6
CONTINUOUS
 10
9.939005
 20
55.86476
  0
VERTEX
  8
PTS2DXF
  6
CONTINUOUS
 10
9.91854
 20
55.86207
  0
VERTEX
  8
PTS2DXF
  6
CONTINUOUS
 10
9.908866
 20
55.86801
  0
VERTEX
  8
PTS2DXF
  6
CONTINUOUS
 10
9.905595
 20
55.86795
  0
VERTEX
  8
PTS2DXF
  6
CONTINUOUS
 10
9.89685
 20
55.86779
  0
VERTEX
  8
PTS2DXF
  6
CONTINUOUS
 10
9.89685
 20
55.86779
  0
VERTEX
  8
PTS2DXF
  6
CONTINUOUS
 10
9.894942
 20
55.86607
  0
VERTEX
  8
PTS2DXF
  6
CONTINUOUS
 10
9.88601
 20
55.86583
  0
VERTEX
  8
PTS2DXF
  6
CONTINUOUS
 10
9.877879
 20
55.86009
  0
VERTEX
  8
PTS2DXF
  6
CONTINUOUS
 10
9.870376
 20
55.8573
  0
VERTEX
  8
PTS2DXF
  6
CONTINUOUS
 10
9.863149
 20
55.85816
  0
VERTEX
  8
PTS2DXF
  6
CONTINUOUS
 10
9.863149
 20
55.85816
  0
VERTEX
  8
PTS2DXF
  6
CONTINUOUS
 10
9.857654
 20
55.8551
  0
VERTEX
  8
PTS2DXF
  6
CONTINUOUS
 10
9.860295
 20
55.85253
  0
VERTEX
  8
PTS2DXF
  6
CONTINUOUS
 10
9.880424
 20
55.8509
  0
VERTEX
  8
PTS2DXF
  6
CONTINUOUS
 10
9.891449
 20
55.84675
  0
VERTEX
  8
PTS2DXF
  6
CONTINUOUS
 10
9.908358
 20
55.84543
  0
VERTEX
  8
PTS2DXF
  6
CONTINUOUS
 10
9.952991
 20
55.83612
  0
VERTEX
  8
PTS2DXF
  6
CONTINUOUS
 10
9.971913
 20
55.83474
  0
VERTEX
  8
PTS2DXF
  6
CONTINUOUS
 10
9.979342
 20
55.83136
  0
VERTEX
  8
PTS2DXF
  6
CONTINUOUS
 10
10
 20
55.82885
  0
VERTEX
  8
PTS2DXF
  6
CONTINUOUS
 10
10.00541
 20
55.82819
  0
VERTEX
  8
PTS2DXF
  6
CONTINUOUS
 10
10.01791
 20
55.83267
  0
VERTEX
  8
PTS2DXF
  6
CONTINUOUS
 10
10.02322
 20
55.83847
  0
VERTEX
  8
PTS2DXF
  6
CONTINUOUS
 10
10.02568
 20
55.83886
  0
VERTEX
  8
PTS2DXF
  6
CONTINUOUS
 10
10.02602
 20
55.83292
  0
VERTEX
  8
PTS2DXF
  6
CONTINUOUS
 10
10.02046
 20
55.82918
  0
VERTEX
  8
PTS2DXF
  6
CONTINUOUS
 10
10.02232
 20
55.82708
  0
VERTEX
  8
PTS2DXF
  6
CONTINUOUS
 10
10.02056
 20
55.82523
  0
VERTEX
  8
PTS2DXF
  6
CONTINUOUS
 10
10.01703
 20
55.82151
  0
VERTEX
  8
PTS2DXF
  6
CONTINUOUS
 10
10.03777
 20
55.82783
  0
VERTEX
  8
PTS2DXF
  6
CONTINUOUS
 10
10.04869
 20
55.82778
  0
VERTEX
  8
PTS2DXF
  6
CONTINUOUS
 10
10.05165
 20
55.8293
  0
VERTEX
  8
PTS2DXF
  6
CONTINUOUS
 10
10.05834
 20
55.81681
  0
VERTEX
  8
PTS2DXF
  6
CONTINUOUS
 10
10.06664
 20
55.81431
  0
VERTEX
  8
PTS2DXF
  6
CONTINUOUS
 10
10.06807
 20
55.81199
  0
VERTEX
  8
PTS2DXF
  6
CONTINUOUS
 10
10.06055
 20
55.80899
  0
VERTEX
  8
PTS2DXF
  6
CONTINUOUS
 10
10.04743
 20
55.79678
  0
VERTEX
  8
PTS2DXF
  6
CONTINUOUS
 10
10.01814
 20
55.77926
  0
VERTEX
  8
PTS2DXF
  6
CONTINUOUS
 10
10.01896
 20
55.7692
  0
VERTEX
  8
PTS2DXF
  6
CONTINUOUS
 10
10.02966
 20
55.76139
  0
VERTEX
  8
PTS2DXF
  6
CONTINUOUS
 10
10.04606
 20
55.75915
  0
VERTEX
  8
PTS2DXF
  6
CONTINUOUS
 10
10.05602
 20
55.7589
  0
VERTEX
  8
PTS2DXF
  6
CONTINUOUS
 10
10.06824
 20
55.75858
  0
VERTEX
  8
PTS2DXF
  6
CONTINUOUS
 10
10.07772
 20
55.75583
  0
VERTEX
  8
PTS2DXF
  6
CONTINUOUS
 10
10.08333
 20
55.7502
  0
VERTEX
  8
PTS2DXF
  6
CONTINUOUS
 10
10.08201
 20
55.74887
  0
VERTEX
  8
PTS2DXF
  6
CONTINUOUS
 10
10.05453
 20
55.74889
  0
VERTEX
  8
PTS2DXF
  6
CONTINUOUS
 10
10.04444
 20
55.7439
  0
VERTEX
  8
PTS2DXF
  6
CONTINUOUS
 10
10.03997
 20
55.73853
  0
VERTEX
  8
PTS2DXF
  6
CONTINUOUS
 10
10.01343
 20
55.73487
  0
VERTEX
  8
PTS2DXF
  6
CONTINUOUS
 10
10.0034
 20
55.73056
  0
VERTEX
  8
PTS2DXF
  6
CONTINUOUS
 10
10.00062
 20
55.72606
  0
VERTEX
  8
PTS2DXF
  6
CONTINUOUS
 10
10.00232
 20
55.72191
  0
VERTEX
  8
PTS2DXF
  6
CONTINUOUS
 10
10.0158
 20
55.71883
  0
VERTEX
  8
PTS2DXF
  6
CONTINUOUS
 10
10.02027
 20
55.71917
  0
VERTEX
  8
PTS2DXF
  6
CONTINUOUS
 10
10.02439
 20
55.70994
  0
VERTEX
  8
PTS2DXF
  6
CONTINUOUS
 10
10.03451
 20
55.7001
  0
VERTEX
  8
PTS2DXF
  6
CONTINUOUS
 10
10.0316
 20
55.69903
  0
VERTEX
  8
PTS2DXF
  6
CONTINUOUS
 10
10.01821
 20
55.70325
  0
VERTEX
  8
PTS2DXF
  6
CONTINUOUS
 10
10.01536
 20
55.70337
  0
VERTEX
  8
PTS2DXF
  6
CONTINUOUS
 10
10.00534
 20
55.7038
  0
VERTEX
  8
PTS2DXF
  6
CONTINUOUS
 10
10
 20
55.70236
  0
VERTEX
  8
PTS2DXF
  6
CONTINUOUS
 10
9.986786
 20
55.69879
  0
VERTEX
  8
PTS2DXF
  6
CONTINUOUS
 10
9.974579
 20
55.6975
  0
VERTEX
  8
PTS2DXF
  6
CONTINUOUS
 10
9.922416
 20
55.69605
  0
VERTEX
  8
PTS2DXF
  6
CONTINUOUS
 10
9.882782
 20
55.68949
  0
VERTEX
  8
PTS2DXF
  6
CONTINUOUS
 10
9.86833
 20
55.68505
  0
VERTEX
  8
PTS2DXF
  6
CONTINUOUS
 10
9.846208
 20
55.67508
  0
VERTEX
  8
PTS2DXF
  6
CONTINUOUS
 10
9.832285
 20
55.67222
  0
VERTEX
  8
PTS2DXF
  6
CONTINUOUS
 10
9.825442
 20
55.67238
  0
VERTEX
  8
PTS2DXF
  6
CONTINUOUS
 10
9.81429
 20
55.67972
  0
VERTEX
  8
PTS2DXF
  6
CONTINUOUS
 10
9.812607
 20
55.68007
  0
VERTEX
  8
PTS2DXF
  6
CONTINUOUS
 10
9.79045
 20
55.68462
  0
VERTEX
  8
PTS2DXF
  6
CONTINUOUS
 10
9.77302
 20
55.68343
  0
VERTEX
  8
PTS2DXF
  6
CONTINUOUS
 10
9.749312
 20
55.68467
  0
VERTEX
  8
PTS2DXF
  6
CONTINUOUS
 10
9.721106
 20
55.70198
  0
VERTEX
  8
PTS2DXF
  6
CONTINUOUS
 10
9.719352
 20
55.70568
  0
VERTEX
  8
PTS2DXF
  6
CONTINUOUS
 10
9.715808
 20
55.7069
  0
VERTEX
  8
PTS2DXF
  6
CONTINUOUS
 10
9.701658
 20
55.70654
  0
VERTEX
  8
PTS2DXF
  6
CONTINUOUS
 10
9.691941
 20
55.71178
  0
VERTEX
  8
PTS2DXF
  6
CONTINUOUS
 10
9.678078
 20
55.71552
  0
VERTEX
  8
PTS2DXF
  6
CONTINUOUS
 10
9.621637
 20
55.71062
  0
VERTEX
  8
PTS2DXF
  6
CONTINUOUS
 10
9.617562
 20
55.70979
  0
VERTEX
  8
PTS2DXF
  6
CONTINUOUS
 10
9.612631
 20
55.70877
  0
VERTEX
  8
PTS2DXF
  6
CONTINUOUS
 10
9.587121
 20
55.70751
  0
VERTEX
  8
PTS2DXF
  6
CONTINUOUS
 10
9.576676
 20
55.70819
  0
VERTEX
  8
PTS2DXF
  6
CONTINUOUS
 10
9.566818
 20
55.71161
  0
VERTEX
  8
PTS2DXF
  6
CONTINUOUS
 10
9.566818
 20
55.71161
  0
VERTEX
  8
PTS2DXF
  6
CONTINUOUS
 10
9.544365
 20
55.70776
  0
VERTEX
  8
PTS2DXF
  6
CONTINUOUS
 10
9.558283
 20
55.70472
  0
VERTEX
  8
PTS2DXF
  6
CONTINUOUS
 10
9.570293
 20
55.69738
  0
VERTEX
  8
PTS2DXF
  6
CONTINUOUS
 10
9.581386
 20
55.6944
  0
VERTEX
  8
PTS2DXF
  6
CONTINUOUS
 10
9.589799
 20
55.69353
  0
VERTEX
  8
PTS2DXF
  6
CONTINUOUS
 10
9.600966
 20
55.69532
  0
VERTEX
  8
PTS2DXF
  6
CONTINUOUS
 10
9.600966
 20
55.69532
  0
VERTEX
  8
PTS2DXF
  6
CONTINUOUS
 10
9.611988
 20
55.69623
  0
VERTEX
  8
PTS2DXF
  6
CONTINUOUS
 10
9.631647
 20
55.69785
  0
VERTEX
  8
PTS2DXF
  6
CONTINUOUS
 10
9.647776
 20
55.69772
  0
VERTEX
  8
PTS2DXF
  6
CONTINUOUS
 10
9.653193
 20
55.6944
  0
VERTEX
  8
PTS2DXF
  6
CONTINUOUS
 10
9.663681
 20
55.69439
  0
VERTEX
  8
PTS2DXF
  6
CONTINUOUS
 10
9.668722
 20
55.69725
  0
VERTEX
  8
PTS2DXF
  6
CONTINUOUS
 10
9.672735
 20
55.69693
  0
VERTEX
  8
PTS2DXF
  6
CONTINUOUS
 10
9.689748
 20
55.6865
  0
VERTEX
  8
PTS2DXF
  6
CONTINUOUS
 10
9.695835
 20
55.67563
  0
VERTEX
  8
PTS2DXF
  6
CONTINUOUS
 10
9.707442
 20
55.66875
  0
VERTEX
  8
PTS2DXF
  6
CONTINUOUS
 10
9.71955
 20
55.66893
  0
VERTEX
  8
PTS2DXF
  6
CONTINUOUS
 10
9.7388
 20
55.66187
  0
VERTEX
  8
PTS2DXF
  6
CONTINUOUS
 10
9.744729
 20
55.65465
  0
VERTEX
  8
PTS2DXF
  6
CONTINUOUS
 10
9.750608
 20
55.63557
  0
VERTEX
  8
PTS2DXF
  6
CONTINUOUS
 10
9.745791
 20
55.6302
  0
VERTEX
  8
PTS2DXF
  6
CONTINUOUS
 10
9.759635
 20
55.62669
  0
VERTEX
  8
PTS2DXF
  6
CONTINUOUS
 10
9.785066
 20
55.62746
  0
VERTEX
  8
PTS2DXF
  6
CONTINUOUS
 10
9.81395
 20
55.63134
  0
VERTEX
  8
PTS2DXF
  6
CONTINUOUS
 10
9.828461
 20
55.63145
  0
VERTEX
  8
PTS2DXF
  6
CONTINUOUS
 10
9.853992
 20
55.6281
  0
VERTEX
  8
PTS2DXF
  6
CONTINUOUS
 10
9.86016
 20
55.62978
  0
VERTEX
  8
PTS2DXF
  6
CONTINUOUS
 10
9.861514
 20
55.62825
  0
VERTEX
  8
PTS2DXF
  6
CONTINUOUS
 10
9.862017
 20
55.62768
  0
VERTEX
  8
PTS2DXF
  6
CONTINUOUS
 10
9.859818
 20
55.62522
  0
VERTEX
  8
PTS2DXF
  6
CONTINUOUS
 10
9.825954
 20
55.60846
  0
VERTEX
  8
PTS2DXF
  6
CONTINUOUS
 10
9.806547
 20
55.60184
  0
VERTEX
  8
PTS2DXF
  6
CONTINUOUS
 10
9.798143
 20
55.59702
  0
VERTEX
  8
PTS2DXF
  6
CONTINUOUS
 10
9.794246
 20
55.58775
  0
VERTEX
  8
PTS2DXF
  6
CONTINUOUS
 10
9.775611
 20
55.57495
  0
VERTEX
  8
PTS2DXF
  6
CONTINUOUS
 10
9.771892
 20
55.56248
  0
VERTEX
  8
PTS2DXF
  6
CONTINUOUS
 10
9.769334
 20
55.56049
  0
VERTEX
  8
PTS2DXF
  6
CONTINUOUS
 10
9.764918
 20
55.5606
  0
VERTEX
  8
PTS2DXF
  6
CONTINUOUS
 10
9.75911
 20
55.5637
  0
VERTEX
  8
PTS2DXF
  6
CONTINUOUS
 10
9.737169
 20
55.56056
  0
VERTEX
  8
PTS2DXF
  6
CONTINUOUS
 10
9.733294
 20
55.557
  0
VERTEX
  8
PTS2DXF
  6
CONTINUOUS
 10
9.7317
 20
55.55156
  0
VERTEX
  8
PTS2DXF
  6
CONTINUOUS
 10
9.734456
 20
55.54564
  0
VERTEX
  8
PTS2DXF
  6
CONTINUOUS
 10
9.743196
 20
55.52686
  0
VERTEX
  8
PTS2DXF
  6
CONTINUOUS
 10
9.739308
 20
55.52307
  0
VERTEX
  8
PTS2DXF
  6
CONTINUOUS
 10
9.731574
 20
55.52165
  0
VERTEX
  8
PTS2DXF
  6
CONTINUOUS
 10
9.720392
 20
55.5226
  0
VERTEX
  8
PTS2DXF
  6
CONTINUOUS
 10
9.691144
 20
55.52943
  0
VERTEX
  8
PTS2DXF
  6
CONTINUOUS
 10
9.676782
 20
55.5309
  0
VERTEX
  8
PTS2DXF
  6
CONTINUOUS
 10
9.670589
 20
55.52853
  0
VERTEX
  8
PTS2DXF
  6
CONTINUOUS
 10
9.646183
 20
55.51265
  0
VERTEX
  8
PTS2DXF
  6
CONTINUOUS
 10
9.640522
 20
55.51209
  0
VERTEX
  8
PTS2DXF
  6
CONTINUOUS
 10
9.633139
 20
55.51568
  0
VERTEX
  8
PTS2DXF
  6
CONTINUOUS
 10
9.626754
 20
55.51628
  0
VERTEX
  8
PTS2DXF
  6
CONTINUOUS
 10
9.61654
 20
55.51377
  0
VERTEX
  8
PTS2DXF
  6
CONTINUOUS
 10
9.614289
 20
55.5161
  0
VERTEX
  8
PTS2DXF
  6
CONTINUOUS
 10
9.609107
 20
55.51667
  0
VERTEX
  8
PTS2DXF
  6
CONTINUOUS
 10
9.605053
 20
55.52201
  0
VERTEX
  8
PTS2DXF
  6
CONTINUOUS
 10
9.591264
 20
55.52597
  0
VERTEX
  8
PTS2DXF
  6
CONTINUOUS
 10
9.576283
 20
55.53018
  0
VERTEX
  8
PTS2DXF
  6
CONTINUOUS
 10
9.571853
 20
55.53005
  0
VERTEX
  8
PTS2DXF
  6
CONTINUOUS
 10
9.568814
 20
55.5267
  0
VERTEX
  8
PTS2DXF
  6
CONTINUOUS
 10
9.579553
 20
55.51915
  0
VERTEX
  8
PTS2DXF
  6
CONTINUOUS
 10
9.587869
 20
55.52331
  0
VERTEX
  8
PTS2DXF
  6
CONTINUOUS
 10
9.591385
 20
55.52186
  0
VERTEX
  8
PTS2DXF
  6
CONTINUOUS
 10
9.592448
 20
55.51978
  0
VERTEX
  8
PTS2DXF
  6
CONTINUOUS
 10
9.581635
 20
55.51432
  0
VERTEX
  8
PTS2DXF
  6
CONTINUOUS
 10
9.5901
 20
55.50294
  0
VERTEX
  8
PTS2DXF
  6
CONTINUOUS
 10
9.588001
 20
55.50162
  0
VERTEX
  8
PTS2DXF
  6
CONTINUOUS
 10
9.544458
 20
55.49892
  0
VERTEX
  8
PTS2DXF
  6
CONTINUOUS
 10
9.517347
 20
55.50179
  0
VERTEX
  8
PTS2DXF
  6
CONTINUOUS
 10
9.501693
 20
55.49574
  0
VERTEX
  8
PTS2DXF
  6
CONTINUOUS
 10
9.504199
 20
55.49112
  0
VERTEX
  8
PTS2DXF
  6
CONTINUOUS
 10
9.517169
 20
55.48696
  0
VERTEX
  8
PTS2DXF
  6
CONTINUOUS
 10
9.541089
 20
55.49055
  0
VERTEX
  8
PTS2DXF
  6
CONTINUOUS
 10
9.551354
 20
55.49398
  0
VERTEX
  8
PTS2DXF
  6
CONTINUOUS
 10
9.572336
 20
55.49557
  0
VERTEX
  8
PTS2DXF
  6
CONTINUOUS
 10
9.582372
 20
55.48965
  0
VERTEX
  8
PTS2DXF
  6
CONTINUOUS
 10
9.592392
 20
55.48943
  0
VERTEX
  8
PTS2DXF
  6
CONTINUOUS
 10
9.605472
 20
55.49872
  0
VERTEX
  8
PTS2DXF
  6
CONTINUOUS
 10
9.62854
 20
55.5014
  0
VERTEX
  8
PTS2DXF
  6
CONTINUOUS
 10
9.635057
 20
55.49692
  0
VERTEX
  8
PTS2DXF
  6
CONTINUOUS
 10
9.643764
 20
55.49512
  0
VERTEX
  8
PTS2DXF
  6
CONTINUOUS
 10
9.670804
 20
55.4799
  0
VERTEX
  8
PTS2DXF
  6
CONTINUOUS
 10
9.678076
 20
55.4738
  0
VERTEX
  8
PTS2DXF
  6
CONTINUOUS
 10
9.681416
 20
55.47099
  0
VERTEX
  8
PTS2DXF
  6
CONTINUOUS
 10
9.690453
 20
55.46827
  0
VERTEX
  8
PTS2DXF
  6
CONTINUOUS
 10
9.695034
 20
55.46497
  0
VERTEX
  8
PTS2DXF
  6
CONTINUOUS
 10
9.695194
 20
55.46154
  0
VERTEX
  8
PTS2DXF
  6
CONTINUOUS
 10
9.690021
 20
55.45641
  0
VERTEX
  8
PTS2DXF
  6
CONTINUOUS
 10
9.678088
 20
55.45211
  0
VERTEX
  8
PTS2DXF
  6
CONTINUOUS
 10
9.674951
 20
55.44739
  0
VERTEX
  8
PTS2DXF
  6
CONTINUOUS
 10
9.649337
 20
55.43656
  0
VERTEX
  8
PTS2DXF
  6
CONTINUOUS
 10
9.63791
 20
55.43362
  0
VERTEX
  8
PTS2DXF
  6
CONTINUOUS
 10
9.617003
 20
55.43272
  0
VERTEX
  8
PTS2DXF
  6
CONTINUOUS
 10
9.607657
 20
55.43087
  0
VERTEX
  8
PTS2DXF
  6
CONTINUOUS
 10
9.597728
 20
55.4263
  0
VERTEX
  8
PTS2DXF
  6
CONTINUOUS
 10
9.59511
 20
55.42316
  0
VERTEX
  8
PTS2DXF
  6
CONTINUOUS
 10
9.600507
 20
55.41414
  0
VERTEX
  8
PTS2DXF
  6
CONTINUOUS
 10
9.615802
 20
55.39759
  0
VERTEX
  8
PTS2DXF
  6
CONTINUOUS
 10
9.62318
 20
55.39423
  0
VERTEX
  8
PTS2DXF
  6
CONTINUOUS
 10
9.622423
 20
55.39189
  0
VERTEX
  8
PTS2DXF
  6
CONTINUOUS
 10
9.616071
 20
55.37224
  0
VERTEX
  8
PTS2DXF
  6
CONTINUOUS
 10
9.604736
 20
55.36451
  0
VERTEX
  8
PTS2DXF
  6
CONTINUOUS
 10
9.604736
 20
55.36451
  0
VERTEX
  8
PTS2DXF
  6
CONTINUOUS
 10
9.601816
 20
55.36274
  0
VERTEX
  8
PTS2DXF
  6
CONTINUOUS
 10
9.601816
 20
55.36274
  0
VERTEX
  8
PTS2DXF
  6
CONTINUOUS
 10
9.60149
 20
55.35796
  0
VERTEX
  8
PTS2DXF
  6
CONTINUOUS
 10
9.626353
 20
55.35877
  0
VERTEX
  8
PTS2DXF
  6
CONTINUOUS
 10
9.64927
 20
55.34296
  0
VERTEX
  8
PTS2DXF
  6
CONTINUOUS
 10
9.64806
 20
55.33705
  0
VERTEX
  8
PTS2DXF
  6
CONTINUOUS
 10
9.652059
 20
55.33125
  0
VERTEX
  8
PTS2DXF
  6
CONTINUOUS
 10
9.646858
 20
55.32543
  0
VERTEX
  8
PTS2DXF
  6
CONTINUOUS
 10
9.63338
 20
55.31546
  0
VERTEX
  8
PTS2DXF
  6
CONTINUOUS
 10
9.622847
 20
55.31342
  0
VERTEX
  8
PTS2DXF
  6
CONTINUOUS
 10
9.623888
 20
55.31111
  0
VERTEX
  8
PTS2DXF
  6
CONTINUOUS
 10
9.63396
 20
55.31225
  0
VERTEX
  8
PTS2DXF
  6
CONTINUOUS
 10
9.64101
 20
55.31597
  0
VERTEX
  8
PTS2DXF
  6
CONTINUOUS
 10
9.646393
 20
55.31288
  0
VERTEX
  8
PTS2DXF
  6
CONTINUOUS
 10
9.652242
 20
55.30499
  0
VERTEX
  8
PTS2DXF
  6
CONTINUOUS
 10
9.673508
 20
55.28897
  0
VERTEX
  8
PTS2DXF
  6
CONTINUOUS
 10
9.671432
 20
55.28802
  0
VERTEX
  8
PTS2DXF
  6
CONTINUOUS
 10
9.670205
 20
55.28745
  0
VERTEX
  8
PTS2DXF
  6
CONTINUOUS
 10
9.664366
 20
55.28964
  0
VERTEX
  8
PTS2DXF
  6
CONTINUOUS
 10
9.651203
 20
55.28994
  0
VERTEX
  8
PTS2DXF
  6
CONTINUOUS
 10
9.64616
 20
55.29211
  0
VERTEX
  8
PTS2DXF
  6
CONTINUOUS
 10
9.644768
 20
55.29511
  0
VERTEX
  8
PTS2DXF
  6
CONTINUOUS
 10
9.641146
 20
55.29473
  0
VERTEX
  8
PTS2DXF
  6
CONTINUOUS
 10
9.637783
 20
55.2923
  0
VERTEX
  8
PTS2DXF
  6
CONTINUOUS
 10
9.628485
 20
55.29068
  0
VERTEX
  8
PTS2DXF
  6
CONTINUOUS
 10
9.613544
 20
55.27663
  0
VERTEX
  8
PTS2DXF
  6
CONTINUOUS
 10
9.593837
 20
55.27456
  0
VERTEX
  8
PTS2DXF
  6
CONTINUOUS
 10
9.585632
 20
55.27132
  0
VERTEX
  8
PTS2DXF
  6
CONTINUOUS
 10
9.583039
 20
55.26841
  0
VERTEX
  8
PTS2DXF
  6
CONTINUOUS
 10
9.587408
 20
55.26215
  0
VERTEX
  8
PTS2DXF
  6
CONTINUOUS
 10
9.583253
 20
55.25973
  0
VERTEX
  8
PTS2DXF
  6
CONTINUOUS
 10
9.575251
 20
55.25945
  0
VERTEX
  8
PTS2DXF
  6
CONTINUOUS
 10
9.567619
 20
55.25277
  0
VERTEX
  8
PTS2DXF
  6
CONTINUOUS
 10
9.556752
 20
55.25141
  0
VERTEX
  8
PTS2DXF
  6
CONTINUOUS
 10
9.542406
 20
55.25172
  0
VERTEX
  8
PTS2DXF
  6
CONTINUOUS
 10
9.524609
 20
55.25417
  0
VERTEX
  8
PTS2DXF
  6
CONTINUOUS
 10
9.515706
 20
55.2523
  0
VERTEX
  8
PTS2DXF
  6
CONTINUOUS
 10
9.535082
 20
55.2496
  0
VERTEX
  8
PTS2DXF
  6
CONTINUOUS
 10
9.560555
 20
55.24858
  0
VERTEX
  8
PTS2DXF
  6
CONTINUOUS
 10
9.570608
 20
55.24973
  0
VERTEX
  8
PTS2DXF
  6
CONTINUOUS
 10
9.578088
 20
55.25414
  0
VERTEX
  8
PTS2DXF
  6
CONTINUOUS
 10
9.588618
 20
55.25641
  0
VERTEX
  8
PTS2DXF
  6
CONTINUOUS
 10
9.59236
 20
55.25861
  0
VERTEX
  8
PTS2DXF
  6
CONTINUOUS
 10
9.588607
 20
55.26806
  0
VERTEX
  8
PTS2DXF
  6
CONTINUOUS
 10
9.594833
 20
55.27157
  0
VERTEX
  8
PTS2DXF
  6
CONTINUOUS
 10
9.614907
 20
55.27318
  0
VERTEX
  8
PTS2DXF
  6
CONTINUOUS
 10
9.632206
 20
55.28672
  0
VERTEX
  8
PTS2DXF
  6
CONTINUOUS
 10
9.640598
 20
55.28675
  0
VERTEX
  8
PTS2DXF
  6
CONTINUOUS
 10
9.646711
 20
55.28273
  0
VERTEX
  8
PTS2DXF
  6
CONTINUOUS
 10
9.659631
 20
55.28473
  0
VERTEX
  8
PTS2DXF
  6
CONTINUOUS
 10
9.671566
 20
55.27829
  0
VERTEX
  8
PTS2DXF
  6
CONTINUOUS
 10
9.683483
 20
55.27448
  0
VERTEX
  8
PTS2DXF
  6
CONTINUOUS
 10
9.699299
 20
55.26943
  0
VERTEX
  8
PTS2DXF
  6
CONTINUOUS
 10
9.71551
 20
55.26152
  0
VERTEX
  8
PTS2DXF
  6
CONTINUOUS
 10
9.719143
 20
55.25641
  0
VERTEX
  8
PTS2DXF
  6
CONTINUOUS
 10
9.718358
 20
55.25095
  0
VERTEX
  8
PTS2DXF
  6
CONTINUOUS
 10
9.712679
 20
55.244
  0
VERTEX
  8
PTS2DXF
  6
CONTINUOUS
 10
9.716708
 20
55.23888
  0
VERTEX
  8
PTS2DXF
  6
CONTINUOUS
 10
9.711209
 20
55.23444
  0
VERTEX
  8
PTS2DXF
  6
CONTINUOUS
 10
9.694286
 20
55.22639
  0
VERTEX
  8
PTS2DXF
  6
CONTINUOUS
 10
9.692247
 20
55.22004
  0
VERTEX
  8
PTS2DXF
  6
CONTINUOUS
 10
9.69723
 20
55.20006
  0
VERTEX
  8
PTS2DXF
  6
CONTINUOUS
 10
9.694157
 20
55.19602
  0
VERTEX
  8
PTS2DXF
  6
CONTINUOUS
 10
9.671015
 20
55.18993
  0
VERTEX
  8
PTS2DXF
  6
CONTINUOUS
 10
9.64936
 20
55.18154
  0
VERTEX
  8
PTS2DXF
  6
CONTINUOUS
 10
9.64216
 20
55.17597
  0
VERTEX
  8
PTS2DXF
  6
CONTINUOUS
 10
9.637403
 20
55.17631
  0
VERTEX
  8
PTS2DXF
  6
CONTINUOUS
 10
9.629861
 20
55.17671
  0
VERTEX
  8
PTS2DXF
  6
CONTINUOUS
 10
9.628058
 20
55.17949
  0
VERTEX
  8
PTS2DXF
  6
CONTINUOUS
 10
9.62422
 20
55.18163
  0
VERTEX
  8
PTS2DXF
  6
CONTINUOUS
 10
9.62524
 20
55.19074
  0
VERTEX
  8
PTS2DXF
  6
CONTINUOUS
 10
9.620974
 20
55.19244
  0
VERTEX
  8
PTS2DXF
  6
CONTINUOUS
 10
9.603143
 20
55.19398
  0
VERTEX
  8
PTS2DXF
  6
CONTINUOUS
 10
9.592321
 20
55.19308
  0
VERTEX
  8
PTS2DXF
  6
CONTINUOUS
 10
9.581332
 20
55.18967
  0
VERTEX
  8
PTS2DXF
  6
CONTINUOUS
 10
9.563431
 20
55.17819
  0
VERTEX
  8
PTS2DXF
  6
CONTINUOUS
 10
9.548867
 20
55.17486
  0
VERTEX
  8
PTS2DXF
  6
CONTINUOUS
 10
9.527019
 20
55.16369
  0
VERTEX
  8
PTS2DXF
  6
CONTINUOUS
 10
9.500754
 20
55.15787
  0
VERTEX
  8
PTS2DXF
  6
CONTINUOUS
 10
9.498189
 20
55.15518
  0
VERTEX
  8
PTS2DXF
  6
CONTINUOUS
 10
9.500015
 20
55.15263
  0
VERTEX
  8
PTS2DXF
  6
CONTINUOUS
 10
9.505828
 20
55.15022
  0
VERTEX
  8
PTS2DXF
  6
CONTINUOUS
 10
9.508161
 20
55.13715
  0
VERTEX
  8
PTS2DXF
  6
CONTINUOUS
 10
9.522782
 20
55.12953
  0
VERTEX
  8
PTS2DXF
  6
CONTINUOUS
 10
9.521029
 20
55.12706
  0
VERTEX
  8
PTS2DXF
  6
CONTINUOUS
 10
9.513335
 20
55.12695
  0
VERTEX
  8
PTS2DXF
  6
CONTINUOUS
 10
9.508284
 20
55.12688
  0
VERTEX
  8
PTS2DXF
  6
CONTINUOUS
 10
9.481914
 20
55.13133
  0
VERTEX
  8
PTS2DXF
  6
CONTINUOUS
 10
9.467183
 20
55.12502
  0
VERTEX
  8
PTS2DXF
  6
CONTINUOUS
 10
9.461108
 20
55.11716
  0
VERTEX
  8
PTS2DXF
  6
CONTINUOUS
 10
9.462581
 20
55.1153
  0
VERTEX
  8
PTS2DXF
  6
CONTINUOUS
 10
9.472526
 20
55.11531
  0
VERTEX
  8
PTS2DXF
  6
CONTINUOUS
 10
9.479115
 20
55.11883
  0
VERTEX
  8
PTS2DXF
  6
CONTINUOUS
 10
9.487782
 20
55.1175
  0
VERTEX
  8
PTS2DXF
  6
CONTINUOUS
 10
9.494329
 20
55.12033
  0
VERTEX
  8
PTS2DXF
  6
CONTINUOUS
 10
9.499848
 20
55.11952
  0
VERTEX
  8
PTS2DXF
  6
CONTINUOUS
 10
9.512068
 20
55.11172
  0
VERTEX
  8
PTS2DXF
  6
CONTINUOUS
 10
9.523833
 20
55.10918
  0
VERTEX
  8
PTS2DXF
  6
CONTINUOUS
 10
9.536733
 20
55.09977
  0
VERTEX
  8
PTS2DXF
  6
CONTINUOUS
 10
9.542649
 20
55.09301
  0
VERTEX
  8
PTS2DXF
  6
CONTINUOUS
 10
9.552377
 20
55.08983
  0
VERTEX
  8
PTS2DXF
  6
CONTINUOUS
 10
9.554902
 20
55.07995
  0
VERTEX
  8
PTS2DXF
  6
CONTINUOUS
 10
9.548301
 20
55.0729
  0
VERTEX
  8
PTS2DXF
  6
CONTINUOUS
 10
9.545065
 20
55.06944
  0
VERTEX
  8
PTS2DXF
  6
CONTINUOUS
 10
9.533977
 20
55.06397
  0
VERTEX
  8
PTS2DXF
  6
CONTINUOUS
 10
9.521036
 20
55.05443
  0
VERTEX
  8
PTS2DXF
  6
CONTINUOUS
 10
9.505857
 20
55.047
  0
VERTEX
  8
PTS2DXF
  6
CONTINUOUS
 10
9.496441
 20
55.0488
  0
VERTEX
  8
PTS2DXF
  6
CONTINUOUS
 10
9.472631
 20
55.04908
  0
VERTEX
  8
PTS2DXF
  6
CONTINUOUS
 10
9.457916
 20
55.04255
  0
VERTEX
  8
PTS2DXF
  6
CONTINUOUS
 10
9.433671
 20
55.04215
  0
VERTEX
  8
PTS2DXF
  6
CONTINUOUS
 10
9.429121
 20
55.03928
  0
VERTEX
  8
PTS2DXF
  6
CONTINUOUS
 10
9.427959
 20
55.0272
  0
VERTEX
  8
PTS2DXF
  6
CONTINUOUS
 10
9.434098
 20
55.02387
  0
VERTEX
  8
PTS2DXF
  6
CONTINUOUS
 10
9.440455
 20
55.02396
  0
VERTEX
  8
PTS2DXF
  6
CONTINUOUS
 10
9.444965
 20
55.01999
  0
VERTEX
  8
PTS2DXF
  6
CONTINUOUS
 10
9.454022
 20
55.01888
  0
VERTEX
  8
PTS2DXF
  6
CONTINUOUS
 10
9.473204
 20
55.01815
  0
VERTEX
  8
PTS2DXF
  6
CONTINUOUS
 10
9.494797
 20
55.01732
  0
VERTEX
  8
PTS2DXF
  6
CONTINUOUS
 10
9.507962
 20
55.01841
  0
VERTEX
  8
PTS2DXF
  6
CONTINUOUS
 10
9.527613
 20
55.02757
  0
VERTEX
  8
PTS2DXF
  6
CONTINUOUS
 10
9.558999
 20
55.03396
  0
VERTEX
  8
PTS2DXF
  6
CONTINUOUS
 10
9.573727
 20
55.03455
  0
VERTEX
  8
PTS2DXF
  6
CONTINUOUS
 10
9.577875
 20
55.03719
  0
VERTEX
  8
PTS2DXF
  6
CONTINUOUS
 10
9.575526
 20
55.04364
  0
VERTEX
  8
PTS2DXF
  6
CONTINUOUS
 10
9.5776
 20
55.04496
  0
VERTEX
  8
PTS2DXF
  6
CONTINUOUS
 10
9.587498
 20
55.04452
  0
VERTEX
  8
PTS2DXF
  6
CONTINUOUS
 10
9.601892
 20
55.04008
  0
VERTEX
  8
PTS2DXF
  6
CONTINUOUS
 10
9.607624
 20
55.03675
  0
VERTEX
  8
PTS2DXF
  6
CONTINUOUS
 10
9.619608
 20
55.02027
  0
VERTEX
  8
PTS2DXF
  6
CONTINUOUS
 10
9.633663
 20
55.01104
  0
VERTEX
  8
PTS2DXF
  6
CONTINUOUS
 10
9.635951
 20
55.01059
  0
VERTEX
  8
PTS2DXF
  6
CONTINUOUS
 10
9.65441
 20
55.00692
  0
VERTEX
  8
PTS2DXF
  6
CONTINUOUS
 10
9.663177
 20
55.00169
  0
VERTEX
  8
PTS2DXF
  6
CONTINUOUS
 10
9.669683
 20
55
  0
VERTEX
  8
PTS2DXF
  6
CONTINUOUS
 10
9.683441
 20
54.99643
  0
VERTEX
  8
PTS2DXF
  6
CONTINUOUS
 10
9.694483
 20
54.98977
  0
VERTEX
  8
PTS2DXF
  6
CONTINUOUS
 10
9.717594
 20
54.99129
  0
VERTEX
  8
PTS2DXF
  6
CONTINUOUS
 10
9.726129
 20
54.98858
  0
VERTEX
  8
PTS2DXF
  6
CONTINUOUS
 10
9.737991
 20
54.98807
  0
VERTEX
  8
PTS2DXF
  6
CONTINUOUS
 10
9.744877
 20
54.97329
  0
VERTEX
  8
PTS2DXF
  6
CONTINUOUS
 10
9.752801
 20
54.96762
  0
VERTEX
  8
PTS2DXF
  6
CONTINUOUS
 10
9.751153
 20
54.95555
  0
VERTEX
  8
PTS2DXF
  6
CONTINUOUS
 10
9.757495
 20
54.93136
  0
VERTEX
  8
PTS2DXF
  6
CONTINUOUS
 10
9.758325
 20
54.9282
  0
VERTEX
  8
PTS2DXF
  6
CONTINUOUS
 10
9.7634
 20
54.92716
  0
VERTEX
  8
PTS2DXF
  6
CONTINUOUS
 10
9.768333
 20
54.91859
  0
VERTEX
  8
PTS2DXF
  6
CONTINUOUS
 10
9.77097
 20
54.9167
  0
VERTEX
  8
PTS2DXF
  6
CONTINUOUS
 10
9.777295
 20
54.91655
  0
VERTEX
  8
PTS2DXF
  6
CONTINUOUS
 10
9.781463
 20
54.91394
  0
VERTEX
  8
PTS2DXF
  6
CONTINUOUS
 10
9.782437
 20
54.91095
  0
VERTEX
  8
PTS2DXF
  6
CONTINUOUS
 10
9.78015
 20
54.90666
  0
VERTEX
  8
PTS2DXF
  6
CONTINUOUS
 10
9.772648
 20
54.90136
  0
VERTEX
  8
PTS2DXF
  6
CONTINUOUS
 10
9.765768
 20
54.89923
  0
VERTEX
  8
PTS2DXF
  6
CONTINUOUS
 10
9.753835
 20
54.89838
  0
VERTEX
  8
PTS2DXF
  6
CONTINUOUS
 10
9.734432
 20
54.90386
  0
VERTEX
  8
PTS2DXF
  6
CONTINUOUS
 10
9.717172
 20
54.9061
  0
VERTEX
  8
PTS2DXF
  6
CONTINUOUS
 10
9.705886
 20
54.90316
  0
VERTEX
  8
PTS2DXF
  6
CONTINUOUS
 10
9.702929
 20
54.90049
  0
VERTEX
  8
PTS2DXF
  6
CONTINUOUS
 10
9.703369
 20
54.89545
  0
VERTEX
  8
PTS2DXF
  6
CONTINUOUS
 10
9.710163
 20
54.89072
  0
VERTEX
  8
PTS2DXF
  6
CONTINUOUS
 10
9.72244
 20
54.8909
  0
VERTEX
  8
PTS2DXF
  6
CONTINUOUS
 10
9.742419
 20
54.88243
  0
VERTEX
  8
PTS2DXF
  6
CONTINUOUS
 10
9.744523
 20
54.87331
  0
VERTEX
  8
PTS2DXF
  6
CONTINUOUS
 10
9.750028
 20
54.86694
  0
VERTEX
  8
PTS2DXF
  6
CONTINUOUS
 10
9.762008
 20
54.863
  0
VERTEX
  8
PTS2DXF
  6
CONTINUOUS
 10
9.76149
 20
54.8557
  0
VERTEX
  8
PTS2DXF
  6
CONTINUOUS
 10
9.765275
 20
54.85333
  0
VERTEX
  8
PTS2DXF
  6
CONTINUOUS
 10
9.751822
 20
54.842
  0
VERTEX
  8
PTS2DXF
  6
CONTINUOUS
 10
9.744197
 20
54.84035
  0
VERTEX
  8
PTS2DXF
  6
CONTINUOUS
 10
9.727594
 20
54.84029
  0
VERTEX
  8
PTS2DXF
  6
CONTINUOUS
 10
9.726223
 20
54.84329
  0
VERTEX
  8
PTS2DXF
  6
CONTINUOUS
 10
9.721252
 20
54.84569
  0
VERTEX
  8
PTS2DXF
  6
CONTINUOUS
 10
9.7088
 20
54.8485
  0
VERTEX
  8
PTS2DXF
  6
CONTINUOUS
 10
9.711028
 20
54.8521
  0
VERTEX
  8
PTS2DXF
  6
CONTINUOUS
 10
9.70806
 20
54.85491
  0
VERTEX
  8
PTS2DXF
  6
CONTINUOUS
 10
9.69671
 20
54.85654
  0
VERTEX
  8
PTS2DXF
  6
CONTINUOUS
 10
9.691736
 20
54.85894
  0
VERTEX
  8
PTS2DXF
  6
CONTINUOUS
 10
9.677983
 20
54.86018
  0
VERTEX
  8
PTS2DXF
  6
CONTINUOUS
 10
9.670672
 20
54.85738
  0
VERTEX
  8
PTS2DXF
  6
CONTINUOUS
 10
9.659606
 20
54.8574
  0
VERTEX
  8
PTS2DXF
  6
CONTINUOUS
 10
9.648267
 20
54.85926
  0
VERTEX
  8
PTS2DXF
  6
CONTINUOUS
 10
9.643291
 20
54.86166
  0
VERTEX
  8
PTS2DXF
  6
CONTINUOUS
 10
9.641434
 20
54.86924
  0
VERTEX
  8
PTS2DXF
  6
CONTINUOUS
 10
9.64376
 20
54.87072
  0
VERTEX
  8
PTS2DXF
  6
CONTINUOUS
 10
9.658799
 20
54.88027
  0
VERTEX
  8
PTS2DXF
  6
CONTINUOUS
 10
9.65777
 20
54.88258
  0
VERTEX
  8
PTS2DXF
  6
CONTINUOUS
 10
9.648717
 20
54.88324
  0
VERTEX
  8
PTS2DXF
  6
CONTINUOUS
 10
9.644954
 20
54.88607
  0
VERTEX
  8
PTS2DXF
  6
CONTINUOUS
 10
9.642323
 20
54.89389
  0
VERTEX
  8
PTS2DXF
  6
CONTINUOUS
 10
9.630911
 20
54.89484
  0
VERTEX
  8
PTS2DXF
  6
CONTINUOUS
 10
9.620947
 20
54.89964
  0
VERTEX
  8
PTS2DXF
  6
CONTINUOUS
 10
9.614964
 20
54.9048
  0
VERTEX
  8
PTS2DXF
  6
CONTINUOUS
 10
9.607516
 20
54.90588
  0
VERTEX
  8
PTS2DXF
  6
CONTINUOUS
 10
9.60787
 20
54.91113
  0
VERTEX
  8
PTS2DXF
  6
CONTINUOUS
 10
9.615959
 20
54.91368
  0
VERTEX
  8
PTS2DXF
  6
CONTINUOUS
 10
9.633917
 20
54.91579
  0
VERTEX
  8
PTS2DXF
  6
CONTINUOUS
 10
9.640033
 20
54.91839
  0
VERTEX
  8
PTS2DXF
  6
CONTINUOUS
 10
9.646297
 20
54.91733
  0
VERTEX
  8
PTS2DXF
  6
CONTINUOUS
 10
9.652719
 20
54.91285
  0
VERTEX
  8
PTS2DXF
  6
CONTINUOUS
 10
9.664515
 20
54.91166
  0
VERTEX
  8
PTS2DXF
  6
CONTINUOUS
 10
9.676229
 20
54.91504
  0
VERTEX
  8
PTS2DXF
  6
CONTINUOUS
 10
9.671878
 20
54.92086
  0
VERTEX
  8
PTS2DXF
  6
CONTINUOUS
 10
9.658052
 20
54.92711
  0
VERTEX
  8
PTS2DXF
  6
CONTINUOUS
 10
9.653692
 20
54.9279
  0
VERTEX
  8
PTS2DXF
  6
CONTINUOUS
 10
9.647882
 20
54.92894
  0
VERTEX
  8
PTS2DXF
  6
CONTINUOUS
 10
9.640696
 20
54.93391
  0
VERTEX
  8
PTS2DXF
  6
CONTINUOUS
 10
9.630553
 20
54.9362
  0
VERTEX
  8
PTS2DXF
  6
CONTINUOUS
 10
9.620906
 20
54.93413
  0
VERTEX
  8
PTS2DXF
  6
CONTINUOUS
 10
9.612663
 20
54.91764
  0
VERTEX
  8
PTS2DXF
  6
CONTINUOUS
 10
9.604941
 20
54.92056
  0
VERTEX
  8
PTS2DXF
  6
CONTINUOUS
 10
9.599803
 20
54.92067
  0
VERTEX
  8
PTS2DXF
  6
CONTINUOUS
 10
9.594022
 20
54.91714
  0
VERTEX
  8
PTS2DXF
  6
CONTINUOUS
 10
9.595481
 20
54.91529
  0
VERTEX
  8
PTS2DXF
  6
CONTINUOUS
 10
9.60293
 20
54.9142
  0
VERTEX
  8
PTS2DXF
  6
CONTINUOUS
 10
9.601894
 20
54.91057
  0
VERTEX
  8
PTS2DXF
  6
CONTINUOUS
 10
9.598565
 20
54.90813
  0
VERTEX
  8
PTS2DXF
  6
CONTINUOUS
 10
9.582998
 20
54.9062
  0
VERTEX
  8
PTS2DXF
  6
CONTINUOUS
 10
9.579684
 20
54.90399
  0
VERTEX
  8
PTS2DXF
  6
CONTINUOUS
 10
9.581903
 20
54.89572
  0
VERTEX
  8
PTS2DXF
  6
CONTINUOUS
 10
9.580413
 20
54.89118
  0
VERTEX
  8
PTS2DXF
  6
CONTINUOUS
 10
9.569095
 20
54.88161
  0
VERTEX
  8
PTS2DXF
  6
CONTINUOUS
 10
9.562184
 20
54.8788
  0
VERTEX
  8
PTS2DXF
  6
CONTINUOUS
 10
9.555485
 20
54.87917
  0
VERTEX
  8
PTS2DXF
  6
CONTINUOUS
 10
9.542706
 20
54.88334
  0
VERTEX
  8
PTS2DXF
  6
CONTINUOUS
 10
9.539596
 20
54.87815
  0
VERTEX
  8
PTS2DXF
  6
CONTINUOUS
 10
9.538966
 20
54.87825
  0
VERTEX
  8
PTS2DXF
  6
CONTINUOUS
 10
9.530982
 20
54.87949
  0
VERTEX
  8
PTS2DXF
  6
CONTINUOUS
 10
9.52309
 20
54.87372
  0
VERTEX
  8
PTS2DXF
  6
CONTINUOUS
 10
9.515951
 20
54.87342
  0
VERTEX
  8
PTS2DXF
  6
CONTINUOUS
 10
9.50985
 20
54.87081
  0
VERTEX
  8
PTS2DXF
  6
CONTINUOUS
 10
9.502591
 20
54.86252
  0
VERTEX
  8
PTS2DXF
  6
CONTINUOUS
 10
9.489515
 20
54.85595
  0
VERTEX
  8
PTS2DXF
  6
CONTINUOUS
 10
9.485186
 20
54.85011
  0
VERTEX
  8
PTS2DXF
  6
CONTINUOUS
 10
9.472132
 20
54.84745
  0
VERTEX
  8
PTS2DXF
  6
CONTINUOUS
 10
9.472132
 20
54.84745
  0
VERTEX
  8
PTS2DXF
  6
CONTINUOUS
 10
9.405233
 20
54.84102
  0
VERTEX
  8
PTS2DXF
  6
CONTINUOUS
 10
9.382286
 20
54.83624
  0
VERTEX
  8
PTS2DXF
  6
CONTINUOUS
 10
9.364415
 20
54.81478
  0
VERTEX
  8
PTS2DXF
  6
CONTINUOUS
 10
9.348725
 20
54.80462
  0
VERTEX
  8
PTS2DXF
  6
CONTINUOUS
 10
9.303729
 20
54.80984
  0
VERTEX
  8
PTS2DXF
  6
CONTINUOUS
 10
9.297453
 20
54.80235
  0
VERTEX
  8
PTS2DXF
  6
CONTINUOUS
 10
9.289614
 20
54.80051
  0
VERTEX
  8
PTS2DXF
  6
CONTINUOUS
 10
9.274778
 20
54.80515
  0
VERTEX
  8
PTS2DXF
  6
CONTINUOUS
 10
9.27556
 20
54.81909
  0
VERTEX
  8
PTS2DXF
  6
CONTINUOUS
 10
9.256821
 20
54.83513
  0
VERTEX
  8
PTS2DXF
  6
CONTINUOUS
 10
9.21863
 20
54.85501
  0
VERTEX
  8
PTS2DXF
  6
CONTINUOUS
 10
9.154581
 20
54.87273
  0
VERTEX
  8
PTS2DXF
  6
CONTINUOUS
 10
9.142867
 20
54.87352
  0
VERTEX
  8
PTS2DXF
  6
CONTINUOUS
 10
9.119927
 20
54.87508
  0
VERTEX
  8
PTS2DXF
  6
CONTINUOUS
 10
9.089666
 20
54.87473
  0
VERTEX
  8
PTS2DXF
  6
CONTINUOUS
 10
9.029408
 20
54.87923
  0
VERTEX
  8
PTS2DXF
  6
CONTINUOUS
 10
9.002558
 20
54.88665
  0
VERTEX
  8
PTS2DXF
  6
CONTINUOUS
 10
8.981914
 20
54.89745
  0
VERTEX
  8
PTS2DXF
  6
CONTINUOUS
 10
8.936717
 20
54.90183
  0
VERTEX
  8
PTS2DXF
  6
CONTINUOUS
 10
8.917159
 20
54.90372
  0
VERTEX
  8
PTS2DXF
  6
CONTINUOUS
 10
8.891457
 20
54.90412
  0
VERTEX
  8
PTS2DXF
  6
CONTINUOUS
 10
8.871638
 20
54.90094
  0
VERTEX
  8
PTS2DXF
  6
CONTINUOUS
 10
8.865389
 20
54.89668
  0
VERTEX
  8
PTS2DXF
  6
CONTINUOUS
 10
8.848599
 20
54.89345
  0
VERTEX
  8
PTS2DXF
  6
CONTINUOUS
 10
8.833881
 20
54.90239
  0
VERTEX
  8
PTS2DXF
  6
CONTINUOUS
 10
8.826718
 20
54.91121
  0
VERTEX
  8
PTS2DXF
  6
CONTINUOUS
 10
8.817764
 20
54.91396
  0
VERTEX
  8
PTS2DXF
  6
CONTINUOUS
 10
8.793605
 20
54.91519
  0
VERTEX
  8
PTS2DXF
  6
CONTINUOUS
 10
8.769328
 20
54.91381
  0
VERTEX
  8
PTS2DXF
  6
CONTINUOUS
 10
8.757568
 20
54.89972
  0
VERTEX
  8
PTS2DXF
  6
CONTINUOUS
 10
8.754953
 20
54.89658
  0
VERTEX
  8
PTS2DXF
  6
CONTINUOUS
 10
8.729254
 20
54.89695
  0
VERTEX
  8
PTS2DXF
  6
CONTINUOUS
 10
8.698134
 20
54.91221
  0
VERTEX
  8
PTS2DXF
  6
CONTINUOUS
 10
8.681573
 20
54.91418
  0
VERTEX
  8
PTS2DXF
  6
CONTINUOUS
 10
8.651432
 20
54.91
  0
VERTEX
  8
PTS2DXF
  6
CONTINUOUS
 10
8.651432
 20
54.91
  0
VERTEX
  8
PTS2DXF
  6
CONTINUOUS
 10
8.656171
 20
54.91372
  0
VERTEX
  8
PTS2DXF
  6
CONTINUOUS
 10
8.654427
 20
54.91899
  0
VERTEX
  8
PTS2DXF
  6
CONTINUOUS
 10
8.657054
 20
54.92466
  0
VERTEX
  8
PTS2DXF
  6
CONTINUOUS
 10
8.660707
 20
54.92667
  0
VERTEX
  8
PTS2DXF
  6
CONTINUOUS
 10
8.661817
 20
54.94263
  0
VERTEX
  8
PTS2DXF
  6
CONTINUOUS
 10
8.671395
 20
54.96189
  0
VERTEX
  8
PTS2DXF
  6
CONTINUOUS
 10
8.675519
 20
54.96548
  0
VERTEX
  8
PTS2DXF
  6
CONTINUOUS
 10
8.671189
 20
54.97491
  0
VERTEX
  8
PTS2DXF
  6
CONTINUOUS
 10
8.656508
 20
55
  0
VERTEX
  8
PTS2DXF
  6
CONTINUOUS
 10
8.656094
 20
55.00071
  0
VERTEX
  8
PTS2DXF
  6
CONTINUOUS
 10
8.64956
 20
55.00537
  0
VERTEX
  8
PTS2DXF
  6
CONTINUOUS
 10
8.646696
 20
55.01144
  0
VERTEX
  8
PTS2DXF
  6
CONTINUOUS
 10
8.634692
 20
55.03687
  0
VERTEX
  8
PTS2DXF
  6
CONTINUOUS
 10
8.65167
 20
55.08821
  0
VERTEX
  8
PTS2DXF
  6
CONTINUOUS
 10
8.673732
 20
55.11916
  0
VERTEX
  8
PTS2DXF
  6
CONTINUOUS
 10
8.679887
 20
55.13207
  0
VERTEX
  8
PTS2DXF
  6
CONTINUOUS
 10
8.683482
 20
55.14115
  0
VERTEX
  8
PTS2DXF
  6
CONTINUOUS
 10
8.692437
 20
55.14558
  0
VERTEX
  8
PTS2DXF
  6
CONTINUOUS
 10
8.687749
 20
55.14748
  0
VERTEX
  8
PTS2DXF
  6
CONTINUOUS
 10
8.670536
 20
55.14523
  0
VERTEX
  8
PTS2DXF
  6
CONTINUOUS
 10
8.65719
 20
55.14931
  0
VERTEX
  8
PTS2DXF
  6
CONTINUOUS
 10
8.660281
 20
55.15611
  0
VERTEX
  8
PTS2DXF
  6
CONTINUOUS
 10
8.667564
 20
55.15874
  0
VERTEX
  8
PTS2DXF
  6
CONTINUOUS
 10
8.68311
 20
55.15919
  0
VERTEX
  8
PTS2DXF
  6
CONTINUOUS
 10
8.688396
 20
55.16162
  0
VERTEX
  8
PTS2DXF
  6
CONTINUOUS
 10
8.681204
 20
55.18729
  0
VERTEX
  8
PTS2DXF
  6
CONTINUOUS
 10
8.674924
 20
55.19812
  0
VERTEX
  8
PTS2DXF
  6
CONTINUOUS
 10
8.66794
 20
55.21991
  0
VERTEX
  8
PTS2DXF
  6
CONTINUOUS
 10
8.662909
 20
55.22056
  0
VERTEX
  8
PTS2DXF
  6
CONTINUOUS
 10
8.661996
 20
55.22068
  0
VERTEX
  8
PTS2DXF
  6
CONTINUOUS
 10
8.660995
 20
55.22503
  0
VERTEX
  8
PTS2DXF
  6
CONTINUOUS
 10
8.664694
 20
55.22749
  0
VERTEX
  8
PTS2DXF
  6
CONTINUOUS
 10
8.663064
 20
55.2355
  0
VERTEX
  8
PTS2DXF
  6
CONTINUOUS
 10
8.664966
 20
55.24232
  0
VERTEX
  8
PTS2DXF
  6
CONTINUOUS
 10
8.660351
 20
55.25494
  0
VERTEX
  8
PTS2DXF
  6
CONTINUOUS
 10
8.664434
 20
55.26584
  0
VERTEX
  8
PTS2DXF
  6
CONTINUOUS
 10
8.662801
 20
55.27385
  0
VERTEX
  8
PTS2DXF
  6
CONTINUOUS
 10
8.659342
 20
55.26797
  0
VERTEX
  8
PTS2DXF
  6
CONTINUOUS
 10
8.654484
 20
55.26644
  0
VERTEX
  8
PTS2DXF
  6
CONTINUOUS
 10
8.650608
 20
55.26901
  0
VERTEX
  8
PTS2DXF
  6
CONTINUOUS
 10
8.653954
 20
55.27238
  0
VERTEX
  8
PTS2DXF
  6
CONTINUOUS
 10
8.652961
 20
55.27696
  0
VERTEX
  8
PTS2DXF
  6
CONTINUOUS
 10
8.658659
 20
55.27939
  0
VERTEX
  8
PTS2DXF
  6
CONTINUOUS
 10
8.659612
 20
55.2828
  0
VERTEX
  8
PTS2DXF
  6
CONTINUOUS
 10
8.655675
 20
55.2929
  0
VERTEX
  8
PTS2DXF
  6
CONTINUOUS
 10
8.66965
 20
55.3229
  0
VERTEX
  8
PTS2DXF
  6
CONTINUOUS
 10
8.67426
 20
55.33279
  0
VERTEX
  8
PTS2DXF
  6
CONTINUOUS
 10
8.677487
 20
55.33343
  0
VERTEX
  8
PTS2DXF
  6
CONTINUOUS
 10
8.677193
 20
55.33571
  0
VERTEX
  8
PTS2DXF
  6
CONTINUOUS
 10
8.668959
 20
55.33926
  0
VERTEX
  8
PTS2DXF
  6
CONTINUOUS
 10
8.668377
 20
55.34406
  0
VERTEX
  8
PTS2DXF
  6
CONTINUOUS
 10
8.664085
 20
55.34641
  0
VERTEX
  8
PTS2DXF
  6
CONTINUOUS
 10
8.656567
 20
55.35702
  0
VERTEX
  8
PTS2DXF
  6
CONTINUOUS
 10
8.658719
 20
55.36041
  0
VERTEX
  8
PTS2DXF
  6
CONTINUOUS
 10
8.6477
 20
55.38225
  0
VERTEX
  8
PTS2DXF
  6
CONTINUOUS
 10
8.643772
 20
55.39281
  0
VERTEX
  8
PTS2DXF
  6
CONTINUOUS
 10
8.637136
 20
55.39655
  0
VERTEX
  8
PTS2DXF
  6
CONTINUOUS
 10
8.635667
 20
55.39954
  0
VERTEX
  8
PTS2DXF
  6
CONTINUOUS
 10
8.63899
 20
55.40223
  0
VERTEX
  8
PTS2DXF
  6
CONTINUOUS
 10
8.629226
 20
55.41675
  0
VERTEX
  8
PTS2DXF
  6
CONTINUOUS
 10
8.62571
 20
55.42776
  0
VERTEX
  8
PTS2DXF
  6
CONTINUOUS
 10
8.620658
 20
55.43126
  0
VERTEX
  8
PTS2DXF
  6
CONTINUOUS
 10
8.609567
 20
55.43415
  0
VERTEX
  8
PTS2DXF
  6
CONTINUOUS
 10
8.585236
 20
55.44591
  0
VERTEX
  8
PTS2DXF
  6
CONTINUOUS
 10
8.56814
 20
55.44912
  0
VERTEX
  8
PTS2DXF
  6
CONTINUOUS
 10
8.555263
 20
55.45729
  0
VERTEX
  8
PTS2DXF
  6
CONTINUOUS
 10
8.546877
 20
55.45809
  0
VERTEX
  8
PTS2DXF
  6
CONTINUOUS
 10
8.521434
 20
55.45365
  0
VERTEX
  8
PTS2DXF
  6
CONTINUOUS
 10
8.504635
 20
55.45457
  0
VERTEX
  8
PTS2DXF
  6
CONTINUOUS
 10
8.498748
 20
55.45761
  0
VERTEX
  8
PTS2DXF
  6
CONTINUOUS
 10
8.489952
 20
55.45819
  0
VERTEX
  8
PTS2DXF
  6
CONTINUOUS
 10
8.485902
 20
55.45945
  0
VERTEX
  8
PTS2DXF
  6
CONTINUOUS
 10
8.476889
 20
55.46224
  0
VERTEX
  8
PTS2DXF
  6
CONTINUOUS
 10
8.469375
 20
55.46201
  0
VERTEX
  8
PTS2DXF
  6
CONTINUOUS
 10
8.469375
 20
55.46201
  0
VERTEX
  8
PTS2DXF
  6
CONTINUOUS
 10
8.457524
 20
55.45931
  0
VERTEX
  8
PTS2DXF
  6
CONTINUOUS
 10
8.45114
 20
55.46008
  0
VERTEX
  8
PTS2DXF
  6
CONTINUOUS
 10
8.447244
 20
55.46286
  0
VERTEX
  8
PTS2DXF
  6
CONTINUOUS
 10
8.432462
 20
55.4642
  0
VERTEX
  8
PTS2DXF
  6
CONTINUOUS
 10
8.429893
 20
55.47017
  0
VERTEX
  8
PTS2DXF
  6
CONTINUOUS
 10
8.417035
 20
55.47969
  0
VERTEX
  8
PTS2DXF
  6
CONTINUOUS
 10
8.417801
 20
55.48242
  0
VERTEX
  8
PTS2DXF
  6
CONTINUOUS
 10
8.417801
 20
55.48242
  0
VERTEX
  8
PTS2DXF
  6
CONTINUOUS
 10
8.415363
 20
55.48815
  0
VERTEX
  8
PTS2DXF
  6
CONTINUOUS
 10
8.413132
 20
55.48935
  0
VERTEX
  8
PTS2DXF
  6
CONTINUOUS
 10
8.391783
 20
55.50077
  0
VERTEX
  8
PTS2DXF
  6
CONTINUOUS
 10
8.380136
 20
55.51096
  0
VERTEX
  8
PTS2DXF
  6
CONTINUOUS
 10
8.320524
 20
55.54866
  0
VERTEX
  8
PTS2DXF
  6
CONTINUOUS
 10
8.313232
 20
55.55787
  0
VERTEX
  8
PTS2DXF
  6
CONTINUOUS
 10
8.298302
 20
55.56718
  0
VERTEX
  8
PTS2DXF
  6
CONTINUOUS
 10
8.295665
 20
55.572
  0
VERTEX
  8
PTS2DXF
  6
CONTINUOUS
 10
8.297415
 20
55.57586
  0
VERTEX
  8
PTS2DXF
  6
CONTINUOUS
 10
8.303952
 20
55.57874
  0
VERTEX
  8
PTS2DXF
  6
CONTINUOUS
 10
8.312802
 20
55.57887
  0
VERTEX
  8
PTS2DXF
  6
CONTINUOUS
 10
8.319718
 20
55.58106
  0
VERTEX
  8
PTS2DXF
  6
CONTINUOUS
 10
8.316433
 20
55.59
  0
VERTEX
  8
PTS2DXF
  6
CONTINUOUS
 10
8.307339
 20
55.59422
  0
VERTEX
  8
PTS2DXF
  6
CONTINUOUS
 10
8.289421
 20
55.59922
  0
VERTEX
  8
PTS2DXF
  6
CONTINUOUS
 10
8.273337
 20
55.59941
  0
VERTEX
  8
PTS2DXF
  6
CONTINUOUS
 10
8.266413
 20
55.59698
  0
VERTEX
  8
PTS2DXF
  6
CONTINUOUS
 10
8.251082
 20
55.58439
  0
VERTEX
  8
PTS2DXF
  6
CONTINUOUS
 10
8.240913
 20
55.56968
  0
VERTEX
  8
PTS2DXF
  6
CONTINUOUS
 10
8.23945
 20
55.5624
  0
VERTEX
  8
PTS2DXF
  6
CONTINUOUS
 10
8.245016
 20
55.54933
  0
VERTEX
  8
PTS2DXF
  6
CONTINUOUS
 10
8.25996
 20
55.54026
  0
VERTEX
  8
PTS2DXF
  6
CONTINUOUS
 10
8.271538
 20
55.5383
  0
VERTEX
  8
PTS2DXF
  6
CONTINUOUS
 10
8.258389
 20
55.53001
  0
VERTEX
  8
PTS2DXF
  6
CONTINUOUS
 10
8.258308
 20
55.52776
  0
VERTEX
  8
PTS2DXF
  6
CONTINUOUS
 10
8.258284
 20
55.52705
  0
VERTEX
  8
PTS2DXF
  6
CONTINUOUS
 10
8.267385
 20
55.52329
  0
VERTEX
  8
PTS2DXF
  6
CONTINUOUS
 10
8.271242
 20
55.51891
  0
VERTEX
  8
PTS2DXF
  6
CONTINUOUS
 10
8.280414
 20
55.5172
  0
VERTEX
  8
PTS2DXF
  6
CONTINUOUS
 10
8.30977
 20
55.49677
  0
VERTEX
  8
PTS2DXF
  6
CONTINUOUS
 10
8.315803
 20
55.47548
  0
VERTEX
  8
PTS2DXF
  6
CONTINUOUS
 10
8.313528
 20
55.46821
  0
VERTEX
  8
PTS2DXF
  6
CONTINUOUS
 10
8.304035
 20
55.47175
  0
VERTEX
  8
PTS2DXF
  6
CONTINUOUS
 10
8.245319
 20
55.50362
  0
VERTEX
  8
PTS2DXF
  6
CONTINUOUS
 10
8.224531
 20
55.51489
  0
VERTEX
  8
PTS2DXF
  6
CONTINUOUS
 10
8.19839
 20
55.52595
  0
VERTEX
  8
PTS2DXF
  6
CONTINUOUS
 10
8.188519
 20
55.53012
  0
VERTEX
  8
PTS2DXF
  6
CONTINUOUS
 10
8.145988
 20
55.54337
  0
VERTEX
  8
PTS2DXF
  6
CONTINUOUS
 10
8.101384
 20
55.55547
  0
VERTEX
  8
PTS2DXF
  6
CONTINUOUS
 10
8.087399
 20
55.5579
  0
VERTEX
  8
PTS2DXF
  6
CONTINUOUS
 10
8.077068
 20
55.56166
  0
VERTEX
  8
PTS2DXF
  6
CONTINUOUS
 10
8.075603
 20
55.56623
  0
VERTEX
  8
PTS2DXF
  6
CONTINUOUS
 10
8.079637
 20
55.57401
  0
VERTEX
  8
PTS2DXF
  6
CONTINUOUS
 10
8.08031
 20
55.57531
  0
VERTEX
  8
PTS2DXF
  6
CONTINUOUS
 10
8.098645
 20
55.59565
  0
VERTEX
  8
PTS2DXF
  6
CONTINUOUS
 10
8.110518
 20
55.61469
  0
VERTEX
  8
PTS2DXF
  6
CONTINUOUS
 10
8.142714
 20
55.67593
  0
VERTEX
  8
PTS2DXF
  6
CONTINUOUS
 10
8.158136
 20
55.70336
  0
VERTEX
  8
PTS2DXF
  6
CONTINUOUS
 10
8.166468
 20
55.72334
  0
VERTEX
  8
PTS2DXF
  6
CONTINUOUS
 10
8.176733
 20
55.75242
  0
VERTEX
  8
PTS2DXF
  6
CONTINUOUS
 10
8.180177
 20
55.77063
  0
VERTEX
  8
PTS2DXF
  6
CONTINUOUS
 10
8.176061
 20
55.81605
  0
VERTEX
  8
PTS2DXF
  6
CONTINUOUS
 10
8.166693
 20
55.83805
  0
VERTEX
  8
PTS2DXF
  6
CONTINUOUS
 10
8.164701
 20
55.84722
  0
VERTEX
  8
PTS2DXF
  6
CONTINUOUS
 10
8.137882
 20
55.97038
  0
VERTEX
  8
PTS2DXF
  6
CONTINUOUS
 10
8.137173
 20
55.97152
  0
VERTEX
  8
PTS2DXF
  6
CONTINUOUS
 10
8.121706
 20
56
  0
VERTEX
  8
PTS2DXF
  6
CONTINUOUS
 10
8.111355
 20
56.03322
  0
VERTEX
  8
PTS2DXF
  6
CONTINUOUS
 10
8.11372
 20
56.03922
  0
VERTEX
  8
PTS2DXF
  6
CONTINUOUS
 10
8.107144
 20
56.05023
  0
VERTEX
  8
PTS2DXF
  6
CONTINUOUS
 10
8.109836
 20
56.10198
  0
VERTEX
  8
PTS2DXF
  6
CONTINUOUS
 10
8.117769
 20
56.12909
  0
VERTEX
  8
PTS2DXF
  6
CONTINUOUS
 10
8.119742
 20
56.13583
  0
VERTEX
  8
PTS2DXF
  6
CONTINUOUS
 10
8.128243
 20
56.18222
  0
VERTEX
  8
PTS2DXF
  6
CONTINUOUS
 10
8.134971
 20
56.20524
  0
VERTEX
  8
PTS2DXF
  6
CONTINUOUS
 10
8.135056
 20
56.2345
  0
VERTEX
  8
PTS2DXF
  6
CONTINUOUS
 10
8.133146
 20
56.25393
  0
VERTEX
  8
PTS2DXF
  6
CONTINUOUS
 10
8.130345
 20
56.2824
  0
VERTEX
  8
PTS2DXF
  6
CONTINUOUS
 10
8.131505
 20
56.30346
  0
VERTEX
  8
PTS2DXF
  6
CONTINUOUS
 10
8.122455
 20
56.34393
  0
VERTEX
  8
PTS2DXF
  6
CONTINUOUS
 10
8.123798
 20
56.35768
  0
VERTEX
  8
PTS2DXF
  6
CONTINUOUS
 10
8.121448
 20
56.36631
  0
VERTEX
  8
PTS2DXF
  6
CONTINUOUS
 10
8.122662
 20
56.3716
  0
VERTEX
  8
PTS2DXF
  6
CONTINUOUS
 10
8.135741
 20
56.37261
  0
VERTEX
  8
PTS2DXF
  6
CONTINUOUS
 10
8.135741
 20
56.37261
  0
VERTEX
  8
PTS2DXF
  6
CONTINUOUS
 10
8.135277
 20
56.37831
  0
VERTEX
  8
PTS2DXF
  6
CONTINUOUS
 10
8.135277
 20
56.37831
  0
VERTEX
  8
PTS2DXF
  6
CONTINUOUS
 10
8.128708
 20
56.37815
  0
VERTEX
  8
PTS2DXF
  6
CONTINUOUS
 10
8.123202
 20
56.38007
  0
VERTEX
  8
PTS2DXF
  6
CONTINUOUS
 10
8.12087
 20
56.38344
  0
VERTEX
  8
PTS2DXF
  6
CONTINUOUS
 10
8.117377
 20
56.40599
  0
VERTEX
  8
PTS2DXF
  6
CONTINUOUS
 10
8.118642
 20
56.42104
  0
VERTEX
  8
PTS2DXF
  6
CONTINUOUS
 10
8.122177
 20
56.46304
  0
VERTEX
  8
PTS2DXF
  6
CONTINUOUS
 10
8.120286
 20
56.48609
  0
VERTEX
  8
PTS2DXF
  6
CONTINUOUS
 10
8.126037
 20
56.52168
  0
VERTEX
  8
PTS2DXF
  6
CONTINUOUS
 10
8.126547
 20
56.5457
  0
VERTEX
  8
PTS2DXF
  6
CONTINUOUS
 10
8.12674
 20
56.54636
  0
VERTEX
  8
PTS2DXF
  6
CONTINUOUS
 10
8.13753
 20
56.58324
  0
VERTEX
  8
PTS2DXF
  6
CONTINUOUS
 10
8.162464
 20
56.64308
  0
VERTEX
  8
PTS2DXF
  6
CONTINUOUS
 10
8.171584
 20
56.65839
  0
VERTEX
  8
PTS2DXF
  6
CONTINUOUS
 10
8.181199
 20
56.66766
  0
VERTEX
  8
PTS2DXF
  6
CONTINUOUS
 10
8.19082
 20
56.67692
  0
VERTEX
  8
PTS2DXF
  6
CONTINUOUS
 10
8.20298
 20
56.69596
  0
VERTEX
  8
PTS2DXF
  6
CONTINUOUS
 10
8.208882
 20
56.7
  0
VERTEX
  8
PTS2DXF
  6
CONTINUOUS
 10
8.216102
 20
56.70314
  0
VERTEX
  8
PTS2DXF
  6
CONTINUOUS
 10
8.227684
 20
56.70364
  0
VERTEX
  8
PTS2DXF
  6
CONTINUOUS
 10
8.234942
 20
56.70107
  0
VERTEX
  8
PTS2DXF
  6
CONTINUOUS
 10
8.241321
 20
56.6939
  0
VERTEX
  8
PTS2DXF
  6
CONTINUOUS
 10
8.237433
 20
56.69061
  0
VERTEX
  8
PTS2DXF
  6
CONTINUOUS
 10
8.22897
 20
56.6927
  0
VERTEX
  8
PTS2DXF
  6
CONTINUOUS
 10
8.22119
 20
56.69137
  0
VERTEX
  8
PTS2DXF
  6
CONTINUOUS
 10
8.219089
 20
56.68652
  0
VERTEX
  8
PTS2DXF
  6
CONTINUOUS
 10
8.213942
 20
56.68342
  0
VERTEX
  8
PTS2DXF
  6
CONTINUOUS
 10
8.213084
 20
56.6786
  0
VERTEX
  8
PTS2DXF
  6
CONTINUOUS
 10
8.205171
 20
56.67384
  0
VERTEX
  8
PTS2DXF
  6
CONTINUOUS
 10
8.194755
 20
56.65895
  0
VERTEX
  8
PTS2DXF
  6
CONTINUOUS
 10
8.203534
 20
56.65802
  0
VERTEX
  8
PTS2DXF
  6
CONTINUOUS
 10
8.211932
 20
56.66188
  0
VERTEX
  8
PTS2DXF
  6
CONTINUOUS
 10
8.21994
 20
56.66249
  0
VERTEX
  8
PTS2DXF
  6
CONTINUOUS
 10
8.220585
 20
56.66254
  0
VERTEX
  8
PTS2DXF
  6
CONTINUOUS
 10
8.226419
 20
56.65696
  0
VERTEX
  8
PTS2DXF
  6
CONTINUOUS
 10
8.225505
 20
56.65282
  0
VERTEX
  8
PTS2DXF
  6
CONTINUOUS
 10
8.2204
 20
56.64927
  0
VERTEX
  8
PTS2DXF
  6
CONTINUOUS
 10
8.201067
 20
56.64744
  0
VERTEX
  8
PTS2DXF
  6
CONTINUOUS
 10
8.194366
 20
56.64316
  0
VERTEX
  8
PTS2DXF
  6
CONTINUOUS
 10
8.179302
 20
56.63983
  0
VERTEX
  8
PTS2DXF
  6
CONTINUOUS
 10
8.176346
 20
56.63541
  0
VERTEX
  8
PTS2DXF
  6
CONTINUOUS
 10
8.184138
 20
56.63125
  0
VERTEX
  8
PTS2DXF
  6
CONTINUOUS
 10
8.211213
 20
56.62939
  0
VERTEX
  8
PTS2DXF
  6
CONTINUOUS
 10
8.237334
 20
56.62384
  0
VERTEX
  8
PTS2DXF
  6
CONTINUOUS
 10
8.244667
 20
56.62012
  0
VERTEX
  8
PTS2DXF
  6
CONTINUOUS
 10
8.245748
 20
56.61695
  0
VERTEX
  8
PTS2DXF
  6
CONTINUOUS
 10
8.242315
 20
56.60795
  0
VERTEX
  8
PTS2DXF
  6
CONTINUOUS
 10
8.245479
 20
56.6046
  0
VERTEX
  8
PTS2DXF
  6
CONTINUOUS
 10
8.253239
 20
56.60592
  0
VERTEX
  8
PTS2DXF
  6
CONTINUOUS
 10
8.264
 20
56.60069
  0
VERTEX
  8
PTS2DXF
  6
CONTINUOUS
 10
8.274558
 20
56.59796
  0
VERTEX
  8
PTS2DXF
  6
CONTINUOUS
 10
8.280005
 20
56.59786
  0
VERTEX
  8
PTS2DXF
  6
CONTINUOUS
 10
8.301912
 20
56.59745
  0
VERTEX
  8
PTS2DXF
  6
CONTINUOUS
 10
8.314638
 20
56.5934
  0
VERTEX
  8
PTS2DXF
  6
CONTINUOUS
 10
8.317792
 20
56.59005
  0
VERTEX
  8
PTS2DXF
  6
CONTINUOUS
 10
8.314717
 20
56.58701
  0
VERTEX
  8
PTS2DXF
  6
CONTINUOUS
 10
8.295407
 20
56.57993
  0
VERTEX
  8
PTS2DXF
  6
CONTINUOUS
 10
8.294055
 20
56.57601
  0
VERTEX
  8
PTS2DXF
  6
CONTINUOUS
 10
8.300329
 20
56.56975
  0
VERTEX
  8
PTS2DXF
  6
CONTINUOUS
 10
8.309086
 20
56.56881
  0
VERTEX
  8
PTS2DXF
  6
CONTINUOUS
 10
8.300308
 20
56.55397
  0
VERTEX
  8
PTS2DXF
  6
CONTINUOUS
 10
8.306025
 20
56.54953
  0
VERTEX
  8
PTS2DXF
  6
CONTINUOUS
 10
8.311195
 20
56.55217
  0
VERTEX
  8
PTS2DXF
  6
CONTINUOUS
 10
8.3175
 20
56.56695
  0
VERTEX
  8
PTS2DXF
  6
CONTINUOUS
 10
8.322567
 20
56.57095
  0
VERTEX
  8
PTS2DXF
  6
CONTINUOUS
 10
8.331888
 20
56.57345
  0
VERTEX
  8
PTS2DXF
  6
CONTINUOUS
 10
8.353477
 20
56.57235
  0
VERTEX
  8
PTS2DXF
  6
CONTINUOUS
 10
8.364992
 20
56.57392
  0
VERTEX
  8
PTS2DXF
  6
CONTINUOUS
 10
8.373534
 20
56.57508
  0
VERTEX
  8
PTS2DXF
  6
CONTINUOUS
 10
8.409777
 20
56.57156
  0
VERTEX
  8
PTS2DXF
  6
CONTINUOUS
 10
8.49239
 20
56.55554
  0
VERTEX
  8
PTS2DXF
  6
CONTINUOUS
 10
8.520853
 20
56.54472
  0
VERTEX
  8
PTS2DXF
  6
CONTINUOUS
 10
8.52963
 20
56.5433
  0
VERTEX
  8
PTS2DXF
  6
CONTINUOUS
 10
8.555245
 20
56.55505
  0
VERTEX
  8
PTS2DXF
  6
CONTINUOUS
 10
8.558956
 20
56.56107
  0
VERTEX
  8
PTS2DXF
  6
CONTINUOUS
 10
8.556684
 20
56.564
  0
VERTEX
  8
PTS2DXF
  6
CONTINUOUS
 10
8.548182
 20
56.57319
  0
VERTEX
  8
PTS2DXF
  6
CONTINUOUS
 10
8.529366
 20
56.58194
  0
VERTEX
  8
PTS2DXF
  6
CONTINUOUS
 10
8.511057
 20
56.60307
  0
VERTEX
  8
PTS2DXF
  6
CONTINUOUS
 10
8.509529
 20
56.60483
  0
VERTEX
  8
PTS2DXF
  6
CONTINUOUS
 10
8.504332
 20
56.61958
  0
VERTEX
  8
PTS2DXF
  6
CONTINUOUS
 10
8.493355
 20
56.62826
  0
VERTEX
  8
PTS2DXF
  6
CONTINUOUS
 10
8.496465
 20
56.63107
  0
VERTEX
  8
PTS2DXF
  6
CONTINUOUS
 10
8.493489
 20
56.63786
  0
VERTEX
  8
PTS2DXF
  6
CONTINUOUS
 10
8.488925
 20
56.63799
  0
VERTEX
  8
PTS2DXF
  6
CONTINUOUS
 10
8.483464
 20
56.6333
  0
VERTEX
  8
PTS2DXF
  6
CONTINUOUS
 10
8.477973
 20
56.63478
  0
VERTEX
  8
PTS2DXF
  6
CONTINUOUS
 10
8.472562
 20
56.64084
  0
VERTEX
  8
PTS2DXF
  6
CONTINUOUS
 10
8.447058
 20
56.64966
  0
VERTEX
  8
PTS2DXF
  6
CONTINUOUS
 10
8.440812
 20
56.65569
  0
VERTEX
  8
PTS2DXF
  6
CONTINUOUS
 10
8.432647
 20
56.65963
  0
VERTEX
  8
PTS2DXF
  6
CONTINUOUS
 10
8.400961
 20
56.66762
  0
VERTEX
  8
PTS2DXF
  6
CONTINUOUS
 10
8.372884
 20
56.67156
  0
VERTEX
  8
PTS2DXF
  6
CONTINUOUS
 10
8.36688
 20
56.67417
  0
VERTEX
  8
PTS2DXF
  6
CONTINUOUS
 10
8.366559
 20
56.67481
  0
VERTEX
  8
PTS2DXF
  6
CONTINUOUS
 10
8.360529
 20
56.68683
  0
VERTEX
  8
PTS2DXF
  6
CONTINUOUS
 10
8.352833
 20
56.68986
  0
VERTEX
  8
PTS2DXF
  6
CONTINUOUS
 10
8.348858
 20
56.69846
  0
VERTEX
  8
PTS2DXF
  6
CONTINUOUS
 10
8.331931
 20
56.70813
  0
VERTEX
  8
PTS2DXF
  6
CONTINUOUS
 10
8.322042
 20
56.71796
  0
VERTEX
  8
PTS2DXF
  6
CONTINUOUS
 10
8.316285
 20
56.73338
  0
VERTEX
  8
PTS2DXF
  6
CONTINUOUS
 10
8.314327
 20
56.74797
  0
VERTEX
  8
PTS2DXF
  6
CONTINUOUS
 10
8.297554
 20
56.76062
  0
VERTEX
  8
PTS2DXF
  6
CONTINUOUS
 10
8.276524
 20
56.76905
  0
VERTEX
  8
PTS2DXF
  6
CONTINUOUS
 10
8.268424
 20
56.77161
  0
VERTEX
  8
PTS2DXF
  6
CONTINUOUS
 10
8.25218
 20
56.77192
  0
VERTEX
  8
PTS2DXF
  6
CONTINUOUS
 10
8.249564
 20
56.76819
  0
VERTEX
  8
PTS2DXF
  6
CONTINUOUS
 10
8.255536
 20
56.76102
  0
VERTEX
  8
PTS2DXF
  6
CONTINUOUS
 10
8.252793
 20
56.74837
  0
VERTEX
  8
PTS2DXF
  6
CONTINUOUS
 10
8.247692
 20
56.73933
  0
VERTEX
  8
PTS2DXF
  6
CONTINUOUS
 10
8.257912
 20
56.73088
  0
VERTEX
  8
PTS2DXF
  6
CONTINUOUS
 10
8.256344
 20
56.71918
  0
VERTEX
  8
PTS2DXF
  6
CONTINUOUS
 10
8.250397
 20
56.71561
  0
VERTEX
  8
PTS2DXF
  6
CONTINUOUS
 10
8.247316
 20
56.70731
  0
VERTEX
  8
PTS2DXF
  6
CONTINUOUS
 10
8.243155
 20
56.70744
  0
VERTEX
  8
PTS2DXF
  6
CONTINUOUS
 10
8.239228
 20
56.70986
  0
VERTEX
  8
PTS2DXF
  6
CONTINUOUS
 10
8.234005
 20
56.72052
  0
VERTEX
  8
PTS2DXF
  6
CONTINUOUS
 10
8.229811
 20
56.72908
  0
VERTEX
  8
PTS2DXF
  6
CONTINUOUS
 10
8.227106
 20
56.75783
  0
VERTEX
  8
PTS2DXF
  6
CONTINUOUS
 10
8.234416
 20
56.78613
  0
VERTEX
  8
PTS2DXF
  6
CONTINUOUS
 10
8.241416
 20
56.80276
  0
VERTEX
  8
PTS2DXF
  6
CONTINUOUS
 10
8.256482
 20
56.82804
  0
VERTEX
  8
PTS2DXF
  6
CONTINUOUS
 10
8.268326
 20
56.8423
  0
VERTEX
  8
PTS2DXF
  6
CONTINUOUS
 10
8.308291
 20
56.89031
  0
VERTEX
  8
PTS2DXF
  6
CONTINUOUS
 10
8.344321
 20
56.92635
  0
VERTEX
  8
PTS2DXF
  6
CONTINUOUS
 10
8.369402
 20
56.94796
  0
VERTEX
  8
PTS2DXF
  6
CONTINUOUS
 10
8.377239
 20
56.95236
  0
VERTEX
  8
PTS2DXF
  6
CONTINUOUS
 10
8.391447
 20
56.96034
  0
VERTEX
  8
PTS2DXF
  6
CONTINUOUS
 10
8.431135
 20
56.98866
  0
VERTEX
  8
PTS2DXF
  6
CONTINUOUS
 10
8.452065
 20
57.01107
  0
VERTEX
  8
PTS2DXF
  6
CONTINUOUS
 10
8.466269
 20
57.02281
  0
VERTEX
  8
PTS2DXF
  6
CONTINUOUS
 10
8.480112
 20
57.03958
  0
VERTEX
  8
PTS2DXF
  6
CONTINUOUS
 10
8.517372
 20
57.04563
  0
VERTEX
  8
PTS2DXF
  6
CONTINUOUS
 10
8.570548
 20
57.0815
  0
VERTEX
  8
PTS2DXF
  6
CONTINUOUS
 10
8.589493
 20
57.10431
  0
VERTEX
  8
PTS2DXF
  6
CONTINUOUS
 10
8.623206
 20
57.12032
  0
VERTEX
  8
PTS2DXF
  6
CONTINUOUS
 10
8.635702
 20
57.12171
  0
VERTEX
  8
PTS2DXF
  6
CONTINUOUS
 10
8.64887
 20
57.11946
  0
VERTEX
  8
PTS2DXF
  6
CONTINUOUS
 10
8.674082
 20
57.11186
  0
VERTEX
  8
PTS2DXF
  6
CONTINUOUS
 10
8.693003
 20
57.10616
  0
VERTEX
  8
PTS2DXF
  6
CONTINUOUS
 10
8.723599
 20
57.10035
  0
VERTEX
  8
PTS2DXF
  6
CONTINUOUS
 10
8.745583
 20
57.0978
  0
VERTEX
  8
PTS2DXF
  6
CONTINUOUS
 10
8.786701
 20
57.09767
  0
VERTEX
  8
PTS2DXF
  6
CONTINUOUS
 10
8.816513
 20
57.10371
  0
VERTEX
  8
PTS2DXF
  6
CONTINUOUS
 10
8.833695
 20
57.10403
  0
VERTEX
  8
PTS2DXF
  6
CONTINUOUS
 10
8.855326
 20
57.10695
  0
VERTEX
  8
PTS2DXF
  6
CONTINUOUS
 10
8.874304
 20
57.11209
  0
VERTEX
  8
PTS2DXF
  6
CONTINUOUS
 10
8.890926
 20
57.11884
  0
VERTEX
  8
PTS2DXF
  6
CONTINUOUS
 10
8.894363
 20
57.12023
  0
VERTEX
  8
PTS2DXF
  6
CONTINUOUS
 10
8.946723
 20
57.1358
  0
VERTEX
  8
PTS2DXF
  6
CONTINUOUS
 10
8.967026
 20
57.14735
  0
VERTEX
  8
PTS2DXF
  6
CONTINUOUS
 10
8.975211
 20
57.15093
  0
VERTEX
  8
PTS2DXF
  6
CONTINUOUS
 10
8.980639
 20
57.15148
  0
VERTEX
  8
PTS2DXF
  6
CONTINUOUS
 10
8.993756
 20
57.14988
  0
VERTEX
  8
PTS2DXF
  6
CONTINUOUS
 10
9.029237
 20
57.15368
  0
VERTEX
  8
PTS2DXF
  6
CONTINUOUS
 10
9.095251
 20
57.1379
  0
VERTEX
  8
PTS2DXF
  6
CONTINUOUS
 10
9.099917
 20
57.13679
  0
VERTEX
  8
PTS2DXF
  6
CONTINUOUS
 10
9.140008
 20
57.13309
  0
VERTEX
  8
PTS2DXF
  6
CONTINUOUS
 10
9.233259
 20
57.13202
  0
VERTEX
  8
PTS2DXF
  6
CONTINUOUS
 10
9.251261
 20
57.13298
  0
VERTEX
  8
PTS2DXF
  6
CONTINUOUS
 10
9.311191
 20
57.14324
  0
VERTEX
  8
PTS2DXF
  6
CONTINUOUS
 10
9.322164
 20
57.14421
  0
VERTEX
  8
PTS2DXF
  6
CONTINUOUS
 10
9.354252
 20
57.14706
  0
VERTEX
  8
PTS2DXF
  6
CONTINUOUS
 10
9.396707
 20
57.15497
  0
VERTEX
  8
PTS2DXF
  6
CONTINUOUS
 10
9.412395
 20
57.16068
  0
VERTEX
  8
PTS2DXF
  6
CONTINUOUS
 10
9.440322
 20
57.17431
  0
VERTEX
  8
PTS2DXF
  6
CONTINUOUS
 10
9.487032
 20
57.19139
  0
VERTEX
  8
PTS2DXF
  6
CONTINUOUS
 10
9.510112
 20
57.20175
  0
VERTEX
  8
PTS2DXF
  6
CONTINUOUS
 10
9.517746
 20
57.20618
  0
VERTEX
  8
PTS2DXF
  6
CONTINUOUS
 10
9.534303
 20
57.21578
  0
VERTEX
  8
PTS2DXF
  6
CONTINUOUS
 10
9.596507
 20
57.25679
  0
VERTEX
  8
PTS2DXF
  6
CONTINUOUS
 10
9.606184
 20
57.26696
  0
VERTEX
  8
PTS2DXF
  6
CONTINUOUS
 10
9.616846
 20
57.27395
  0
VERTEX
  8
PTS2DXF
  6
CONTINUOUS
 10
9.65183
 20
57.30787
  0
VERTEX
  8
PTS2DXF
  6
CONTINUOUS
 10
9.694746
 20
57.34939
  0
VERTEX
  8
PTS2DXF
  6
CONTINUOUS
 10
9.742798
 20
57.39542
  0
VERTEX
  8
PTS2DXF
  6
CONTINUOUS
 10
9.756529
 20
57.41226
  0
VERTEX
  8
PTS2DXF
  6
CONTINUOUS
 10
9.764869
 20
57.42652
  0
VERTEX
  8
PTS2DXF
  6
CONTINUOUS
 10
9.770143
 20
57.44373
  0
VERTEX
  8
PTS2DXF
  6
CONTINUOUS
 10
9.789473
 20
57.46308
  0
VERTEX
  8
PTS2DXF
  6
CONTINUOUS
 10
9.798308
 20
57.47192
  0
VERTEX
  8
PTS2DXF
  6
CONTINUOUS
 10
9.882211
 20
57.52032
  0
VERTEX
  8
PTS2DXF
  6
CONTINUOUS
 10
9.901195
 20
57.53582
  0
VERTEX
  8
PTS2DXF
  6
CONTINUOUS
 10
9.928664
 20
57.56466
  0
VERTEX
  8
PTS2DXF
  6
CONTINUOUS
 10
9.941257
 20
57.58053
  0
VERTEX
  8
PTS2DXF
  6
CONTINUOUS
 10
9.94457
 20
57.5847
  0
VERTEX
  8
PTS2DXF
  6
CONTINUOUS
 10
9.953356
 20
57.5889
  0
VERTEX
  8
PTS2DXF
  6
CONTINUOUS
 10
10
 20
57.5889
  0
VERTEX
  8
PTS2DXF
  6
CONTINUOUS
 10
10.00682
 20
57.5889
  0
VERTEX
  8
PTS2DXF
  6
CONTINUOUS
 10
10.07298
 20
57.58284
  0
VERTEX
  8
PTS2DXF
  6
CONTINUOUS
 10
10.10738
 20
57.58381
  0
VERTEX
  8
PTS2DXF
  6
CONTINUOUS
 10
10.14035
 20
57.59001
  0
VERTEX
  8
PTS2DXF
  6
CONTINUOUS
 10
10.16397
 20
57.59174
  0
VERTEX
  8
PTS2DXF
  6
CONTINUOUS
 10
10.18706
 20
57.59195
  0
VERTEX
  8
PTS2DXF
  6
CONTINUOUS
 10
10.21157
 20
57.59739
  0
VERTEX
  8
PTS2DXF
  6
CONTINUOUS
 10
10.21891
 20
57.59943
  0
VERTEX
  8
PTS2DXF
  6
CONTINUOUS
 10
10.28
 20
57.61637
  0
VERTEX
  8
PTS2DXF
  6
CONTINUOUS
 10
10.29093
 20
57.6217
  0
VERTEX
  8
PTS2DXF
  6
CONTINUOUS
 10
10.31882
 20
57.63033
  0
VERTEX
  8
PTS2DXF
  6
CONTINUOUS
 10
10.38797
 20
57.66115
  0
VERTEX
  8
PTS2DXF
  6
CONTINUOUS
 10
10.40876
 20
57.67168
  0
VERTEX
  8
PTS2DXF
  6
CONTINUOUS
 10
10.44364
 20
57.68934
  0
VERTEX
  8
PTS2DXF
  6
CONTINUOUS
 10
10.46733
 20
57.69929
  0
VERTEX
  8
PTS2DXF
  6
CONTINUOUS
 10
10.49434
 20
57.71474
  0
VERTEX
  8
PTS2DXF
  6
CONTINUOUS
 10
10.52866
 20
57.72884
  0
VERTEX
  8
PTS2DXF
  6
CONTINUOUS
 10
10.56769
 20
57.74319
  0
VERTEX
  8
PTS2DXF
  6
CONTINUOUS
 10
10.58725
 20
57.74807
  0
VERTEX
  8
PTS2DXF
  6
CONTINUOUS
 10
10.5922
 20
57.74813
  0
VERTEX
  8
PTS2DXF
  6
CONTINUOUS
 10
10.61628
 20
57.74841
  0
VERTEX
  8
PTS2DXF
  6
CONTINUOUS
 10
10.66122
 20
57.73988
  0
VERTEX
  8
PTS2DXF
  6
CONTINUOUS
 10
10.66217
 20
57.73724
  0
VERTEX
  8
PTS2DXF
  6
CONTINUOUS
 10
10.65618
 20
57.736
  0
VERTEX
  8
PTS2DXF
  6
CONTINUOUS
 10
10.62936
 20
57.72879
  0
VERTEX
  8
PTS2DXF
  6
CONTINUOUS
 10
10.60688
 20
57.71934
  0
VERTEX
  8
PTS2DXF
  6
CONTINUOUS
 10
10.59581
 20
57.71769
  0
VERTEX
  8
PTS2DXF
  6
CONTINUOUS
 10
10.5946
 20
57.71357
  0
VERTEX
  8
PTS2DXF
  6
CONTINUOUS
 10
10.57376
 20
57.70937
  0
VERTEX
  8
PTS2DXF
  6
CONTINUOUS
 10
10.54966
 20
57.69624
  0
VERTEX
  8
PTS2DXF
  6
CONTINUOUS
 10
10.54025
 20
57.68828
  0
VERTEX
  8
PTS2DXF
  6
CONTINUOUS
 10
10.51437
 20
57.66636
  0
VERTEX
  8
PTS2DXF
  6
CONTINUOUS
 10
10.47025
 20
57.633
  0
VERTEX
  8
PTS2DXF
  6
CONTINUOUS
 10
10.4357
 20
57.59351
  0
VERTEX
  8
PTS2DXF
  6
CONTINUOUS
 10
10.43301
 20
57.5784
  0
VERTEX
  8
PTS2DXF
  6
CONTINUOUS
 10
10.4534
 20
57.53393
  0
VERTEX
  8
PTS2DXF
  6
CONTINUOUS
 10
10.46334
 20
57.52392
  0
VERTEX
  8
PTS2DXF
  6
CONTINUOUS
 10
10.50232
 20
57.50262
  0
VERTEX
  8
PTS2DXF
  6
CONTINUOUS
 10
10.5105
 20
57.49511
  0
VERTEX
  8
PTS2DXF
  6
CONTINUOUS
 10
10.51561
 20
57.49399
  0
VERTEX
  8
PTS2DXF
  6
CONTINUOUS
 10
10.52004
 20
57.48236
  0
VERTEX
  8
PTS2DXF
  6
CONTINUOUS
 10
10.52604
 20
57.47873
  0
VERTEX
  8
PTS2DXF
  6
CONTINUOUS
 10
10.53205
 20
57.46906
  0
VERTEX
  8
PTS2DXF
  6
CONTINUOUS
 10
10.53256
 20
57.46824
  0
VERTEX
  8
PTS2DXF
  6
CONTINUOUS
 10
10.54663
 20
57.46259
  0
VERTEX
  8
PTS2DXF
  6
CONTINUOUS
 10
10.5535
 20
57.45713
  0
VERTEX
  8
PTS2DXF
  6
CONTINUOUS
 10
10.55871
 20
57.44915
  0
VERTEX
  8
PTS2DXF
  6
CONTINUOUS
 10
10.55933
 20
57.43612
  0
VERTEX
  8
PTS2DXF
  6
CONTINUOUS
 10
10.56239
 20
57.43019
  0
VERTEX
  8
PTS2DXF
  6
CONTINUOUS
 10
10.55486
 20
57.4249
  0
VERTEX
  8
PTS2DXF
  6
CONTINUOUS
 10
10.54517
 20
57.42189
  0
VERTEX
  8
PTS2DXF
  6
CONTINUOUS
 10
10.54087
 20
57.40061
  0
VERTEX
  8
PTS2DXF
  6
CONTINUOUS
 10
10.5422
 20
57.3965
  0
VERTEX
  8
PTS2DXF
  6
CONTINUOUS
 10
10.53439
 20
57.38321
  0
VERTEX
  8
PTS2DXF
  6
CONTINUOUS
 10
10.53738
 20
57.35441
  0
VERTEX
  8
PTS2DXF
  6
CONTINUOUS
 10
10.5379
 20
57.3494
  0
VERTEX
  8
PTS2DXF
  6
CONTINUOUS
 10
10.54366
 20
57.3325
  0
VERTEX
  8
PTS2DXF
  6
CONTINUOUS
 10
10.5418
 20
57.31741
  0
VERTEX
  8
PTS2DXF
  6
CONTINUOUS
 10
10.55717
 20
57.27862
  0
VERTEX
  8
PTS2DXF
  6
CONTINUOUS
 10
10.5607
 20
57.25775
  0
VERTEX
  8
PTS2DXF
  6
CONTINUOUS
 10
10.56325
 20
57.24002
  0
VERTEX
  8
PTS2DXF
  6
CONTINUOUS
 10
10.55971
 20
57.22423
  0
VERTEX
  8
PTS2DXF
  6
CONTINUOUS
 10
10.55641
 20
57.21965
  0
VERTEX
  8
PTS2DXF
  6
CONTINUOUS
 10
10.5522
 20
57.22031
  0
VERTEX
  8
PTS2DXF
  6
CONTINUOUS
 10
10.54242
 20
57.21321
  0
VERTEX
  8
PTS2DXF
  6
CONTINUOUS
 10
10.53224
 20
57.20583
  0
VERTEX
  8
PTS2DXF
  6
CONTINUOUS
 10
10.51843
 20
57.20188
  0
VERTEX
  8
PTS2DXF
  6
CONTINUOUS
 10
10.50174
 20
57.19448
  0
VERTEX
  8
PTS2DXF
  6
CONTINUOUS
 10
10.45731
 20
57.16478
  0
VERTEX
  8
PTS2DXF
  6
CONTINUOUS
 10
10.43993
 20
57.15098
  0
VERTEX
  8
PTS2DXF
  6
CONTINUOUS
 10
10.42885
 20
57.13789
  0
VERTEX
  8
PTS2DXF
  6
CONTINUOUS
 10
10.42074
 20
57.12345
  0
VERTEX
  8
PTS2DXF
  6
CONTINUOUS
 10
10.40718
 20
57.10921
  0
VERTEX
  8
PTS2DXF
  6
CONTINUOUS
 10
10.41228
 20
57.10535
  0
VERTEX
  8
PTS2DXF
  6
CONTINUOUS
 10
10.39389
 20
57.08193
  0
VERTEX
  8
PTS2DXF
  6
CONTINUOUS
 10
10.38738
 20
57.0515
  0
VERTEX
  8
PTS2DXF
  6
CONTINUOUS
 10
10.3784
 20
57.04071
  0
VERTEX
  8
PTS2DXF
  6
CONTINUOUS
 10
10.38261
 20
57.03913
  0
VERTEX
  8
PTS2DXF
  6
CONTINUOUS
 10
10.38393
 20
57.0364
  0
VERTEX
  8
PTS2DXF
  6
CONTINUOUS
 10
10.37362
 20
57.02857
  0
VERTEX
  8
PTS2DXF
  6
CONTINUOUS
 10
10.36879
 20
57.0194
  0
VERTEX
  8
PTS2DXF
  6
CONTINUOUS
 10
10.34604
 20
56.9942
  0
VERTEX
  8
PTS2DXF
  6
CONTINUOUS
 10
10.34265
 20
56.99044
  0
VERTEX
  8
PTS2DXF
  6
CONTINUOUS
 10
10.32853
 20
56.98602
  0
SEQEND
  0
POLYLINE
100
AcDb2dPolyline
 66
1
  8
PTS2DXF
  6
CONTINUOUS
 10
0
 20
0
 70
0
  0
VERTEX
  8
PTS2DXF
  6
CONTINUOUS
 10
8.310485
 20
56.00858
  0
VERTEX
  8
PTS2DXF
  6
CONTINUOUS
 10
8.313061
 20
56.01755
  0
VERTEX
  8
PTS2DXF
  6
CONTINUOUS
 10
8.303254
 20
56.034
  0
VERTEX
  8
PTS2DXF
  6
CONTINUOUS
 10
8.309338
 20
56.04511
  0
VERTEX
  8
PTS2DXF
  6
CONTINUOUS
 10
8.306655
 20
56.04825
  0
VERTEX
  8
PTS2DXF
  6
CONTINUOUS
 10
8.291038
 20
56.05519
  0
VERTEX
  8
PTS2DXF
  6
CONTINUOUS
 10
8.281278
 20
56.06548
  0
VERTEX
  8
PTS2DXF
  6
CONTINUOUS
 10
8.268111
 20
56.07225
  0
VERTEX
  8
PTS2DXF
  6
CONTINUOUS
 10
8.239916
 20
56.09375
  0
VERTEX
  8
PTS2DXF
  6
CONTINUOUS
 10
8.222177
 20
56.10132
  0
VERTEX
  8
PTS2DXF
  6
CONTINUOUS
 10
8.207662
 20
56.10417
  0
VERTEX
  8
PTS2DXF
  6
CONTINUOUS
 10
8.198179
 20
56.10531
  0
VERTEX
  8
PTS2DXF
  6
CONTINUOUS
 10
8.176225
 20
56.10408
  0
VERTEX
  8
PTS2DXF
  6
CONTINUOUS
 10
8.164151
 20
56.10699
  0
VERTEX
  8
PTS2DXF
  6
CONTINUOUS
 10
8.141684
 20
56.11718
  0
VERTEX
  8
PTS2DXF
  6
CONTINUOUS
 10
8.134606
 20
56.11883
  0
VERTEX
  8
PTS2DXF
  6
CONTINUOUS
 10
8.133493
 20
56.1124
  0
VERTEX
  8
PTS2DXF
  6
CONTINUOUS
 10
8.139026
 20
56.10713
  0
VERTEX
  8
PTS2DXF
  6
CONTINUOUS
 10
8.145881
 20
56.10059
  0
VERTEX
  8
PTS2DXF
  6
CONTINUOUS
 10
8.147137
 20
56.09514
  0
VERTEX
  8
PTS2DXF
  6
CONTINUOUS
 10
8.139312
 20
56.07574
  0
VERTEX
  8
PTS2DXF
  6
CONTINUOUS
 10
8.139062
 20
56.05357
  0
VERTEX
  8
PTS2DXF
  6
CONTINUOUS
 10
8.134503
 20
56.03426
  0
VERTEX
  8
PTS2DXF
  6
CONTINUOUS
 10
8.135301
 20
56
  0
VERTEX
  8
PTS2DXF
  6
CONTINUOUS
 10
8.140509
 20
55.98836
  0
VERTEX
  8
PTS2DXF
  6
CONTINUOUS
 10
8.151593
 20
55.9798
  0
VERTEX
  8
PTS2DXF
  6
CONTINUOUS
 10
8.149043
 20
55.97641
  0
VERTEX
  8
PTS2DXF
  6
CONTINUOUS
 10
8.156945
 20
55.96994
  0
VERTEX
  8
PTS2DXF
  6
CONTINUOUS
 10
8.159869
 20
55.96033
  0
VERTEX
  8
PTS2DXF
  6
CONTINUOUS
 10
8.173836
 20
55.95335
  0
VERTEX
  8
PTS2DXF
  6
CONTINUOUS
 10
8.176152
 20
55.9499
  0
VERTEX
  8
PTS2DXF
  6
CONTINUOUS
 10
8.174063
 20
55.9481
  0
VERTEX
  8
PTS2DXF
  6
CONTINUOUS
 10
8.16801
 20
55.94908
  0
VERTEX
  8
PTS2DXF
  6
CONTINUOUS
 10
8.16752
 20
55.94658
  0
VERTEX
  8
PTS2DXF
  6
CONTINUOUS
 10
8.173049
 20
55.94218
  0
VERTEX
  8
PTS2DXF
  6
CONTINUOUS
 10
8.171701
 20
55.93716
  0
VERTEX
  8
PTS2DXF
  6
CONTINUOUS
 10
8.17073
 20
55.93354
  0
VERTEX
  8
PTS2DXF
  6
CONTINUOUS
 10
8.178237
 20
55.92776
  0
VERTEX
  8
PTS2DXF
  6
CONTINUOUS
 10
8.175565
 20
55.92072
  0
VERTEX
  8
PTS2DXF
  6
CONTINUOUS
 10
8.171865
 20
55.91917
  0
VERTEX
  8
PTS2DXF
  6
CONTINUOUS
 10
8.173018
 20
55.91733
  0
VERTEX
  8
PTS2DXF
  6
CONTINUOUS
 10
8.176251
 20
55.91706
  0
VERTEX
  8
PTS2DXF
  6
CONTINUOUS
 10
8.177374
 20
55.91432
  0
VERTEX
  8
PTS2DXF
  6
CONTINUOUS
 10
8.171952
 20
55.90982
  0
VERTEX
  8
PTS2DXF
  6
CONTINUOUS
 10
8.17715
 20
55.90771
  0
VERTEX
  8
PTS2DXF
  6
CONTINUOUS
 10
8.17458
 20
55.90363
  0
VERTEX
  8
PTS2DXF
  6
CONTINUOUS
 10
8.186115
 20
55.88549
  0
VERTEX
  8
PTS2DXF
  6
CONTINUOUS
 10
8.182697
 20
55.88028
  0
VERTEX
  8
PTS2DXF
  6
CONTINUOUS
 10
8.187727
 20
55.87339
  0
VERTEX
  8
PTS2DXF
  6
CONTINUOUS
 10
8.196522
 20
55.8701
  0
VERTEX
  8
PTS2DXF
  6
CONTINUOUS
 10
8.197253
 20
55.86781
  0
VERTEX
  8
PTS2DXF
  6
CONTINUOUS
 10
8.180613
 20
55.85477
  0
VERTEX
  8
PTS2DXF
  6
CONTINUOUS
 10
8.17677
 20
55.84888
  0
VERTEX
  8
PTS2DXF
  6
CONTINUOUS
 10
8.180451
 20
55.83812
  0
VERTEX
  8
PTS2DXF
  6
CONTINUOUS
 10
8.1829
 20
55.83878
  0
VERTEX
  8
PTS2DXF
  6
CONTINUOUS
 10
8.187257
 20
55.84785
  0
VERTEX
  8
PTS2DXF
  6
CONTINUOUS
 10
8.201365
 20
55.85796
  0
VERTEX
  8
PTS2DXF
  6
CONTINUOUS
 10
8.205816
 20
55.85791
  0
VERTEX
  8
PTS2DXF
  6
CONTINUOUS
 10
8.209196
 20
55.86198
  0
VERTEX
  8
PTS2DXF
  6
CONTINUOUS
 10
8.212696
 20
55.86946
  0
VERTEX
  8
PTS2DXF
  6
CONTINUOUS
 10
8.210449
 20
55.87473
  0
VERTEX
  8
PTS2DXF
  6
CONTINUOUS
 10
8.202869
 20
55.87801
  0
VERTEX
  8
PTS2DXF
  6
CONTINUOUS
 10
8.197764
 20
55.88263
  0
VERTEX
  8
PTS2DXF
  6
CONTINUOUS
 10
8.21114
 20
55.88293
  0
VERTEX
  8
PTS2DXF
  6
CONTINUOUS
 10
8.214839
 20
55.88449
  0
VERTEX
  8
PTS2DXF
  6
CONTINUOUS
 10
8.208972
 20
55.89048
  0
VERTEX
  8
PTS2DXF
  6
CONTINUOUS
 10
8.212291
 20
55.89272
  0
VERTEX
  8
PTS2DXF
  6
CONTINUOUS
 10
8.209559
 20
55.89572
  0
VERTEX
  8
PTS2DXF
  6
CONTINUOUS
 10
8.210885
 20
55.8989
  0
VERTEX
  8
PTS2DXF
  6
CONTINUOUS
 10
8.215803
 20
55.90044
  0
VERTEX
  8
PTS2DXF
  6
CONTINUOUS
 10
8.227087
 20
55.89872
  0
VERTEX
  8
PTS2DXF
  6
CONTINUOUS
 10
8.240153
 20
55.90153
  0
VERTEX
  8
PTS2DXF
  6
CONTINUOUS
 10
8.245008
 20
55.90125
  0
VERTEX
  8
PTS2DXF
  6
CONTINUOUS
 10
8.246966
 20
55.8994
  0
VERTEX
  8
PTS2DXF
  6
CONTINUOUS
 10
8.242843
 20
55.8974
  0
VERTEX
  8
PTS2DXF
  6
CONTINUOUS
 10
8.23348
 20
55.89613
  0
VERTEX
  8
PTS2DXF
  6
CONTINUOUS
 10
8.232143
 20
55.89273
  0
VERTEX
  8
PTS2DXF
  6
CONTINUOUS
 10
8.232808
 20
55.88862
  0
VERTEX
  8
PTS2DXF
  6
CONTINUOUS
 10
8.2382
 20
55.88405
  0
VERTEX
  8
PTS2DXF
  6
CONTINUOUS
 10
8.242639
 20
55.88029
  0
VERTEX
  8
PTS2DXF
  6
CONTINUOUS
 10
8.248745
 20
55.88114
  0
VERTEX
  8
PTS2DXF
  6
CONTINUOUS
 10
8.251296
 20
55.88453
  0
VERTEX
  8
PTS2DXF
  6
CONTINUOUS
 10
8.258692
 20
55.88741
  0
VERTEX
  8
PTS2DXF
  6
CONTINUOUS
 10
8.263127
 20
55.8869
  0
VERTEX
  8
PTS2DXF
  6
CONTINUOUS
 10
8.265129
 20
55.87502
  0
VERTEX
  8
PTS2DXF
  6
CONTINUOUS
 10
8.261297
 20
55.86982
  0
VERTEX
  8
PTS2DXF
  6
CONTINUOUS
 10
8.263892
 20
55.86317
  0
VERTEX
  8
PTS2DXF
  6
CONTINUOUS
 10
8.261177
 20
55.85523
  0
VERTEX
  8
PTS2DXF
  6
CONTINUOUS
 10
8.254809
 20
55.85135
  0
VERTEX
  8
PTS2DXF
  6
CONTINUOUS
 10
8.262185
 20
55.84951
  0
VERTEX
  8
PTS2DXF
  6
CONTINUOUS
 10
8.26652
 20
55.84627
  0
VERTEX
  8
PTS2DXF
  6
CONTINUOUS
 10
8.273784
 20
55.84573
  0
VERTEX
  8
PTS2DXF
  6
CONTINUOUS
 10
8.288368
 20
55.85719
  0
VERTEX
  8
PTS2DXF
  6
CONTINUOUS
 10
8.296898
 20
55.858
  0
VERTEX
  8
PTS2DXF
  6
CONTINUOUS
 10
8.318374
 20
55.86937
  0
VERTEX
  8
PTS2DXF
  6
CONTINUOUS
 10
8.328587
 20
55.87176
  0
VERTEX
  8
PTS2DXF
  6
CONTINUOUS
 10
8.335813
 20
55.88079
  0
VERTEX
  8
PTS2DXF
  6
CONTINUOUS
 10
8.358614
 20
55.89442
  0
VERTEX
  8
PTS2DXF
  6
CONTINUOUS
 10
8.382503
 20
55.90438
  0
VERTEX
  8
PTS2DXF
  6
CONTINUOUS
 10
8.382636
 20
55.91219
  0
VERTEX
  8
PTS2DXF
  6
CONTINUOUS
 10
8.382741
 20
55.91645
  0
VERTEX
  8
PTS2DXF
  6
CONTINUOUS
 10
8.373857
 20
55.92182
  0
VERTEX
  8
PTS2DXF
  6
CONTINUOUS
 10
8.37881
 20
55.92404
  0
VERTEX
  8
PTS2DXF
  6
CONTINUOUS
 10
8.378663
 20
55.93066
  0
VERTEX
  8
PTS2DXF
  6
CONTINUOUS
 10
8.382894
 20
55.93516
  0
VERTEX
  8
PTS2DXF
  6
CONTINUOUS
 10
8.377356
 20
55.94914
  0
VERTEX
  8
PTS2DXF
  6
CONTINUOUS
 10
8.378651
 20
55.95118
  0
VERTEX
  8
PTS2DXF
  6
CONTINUOUS
 10
8.371836
 20
55.95331
  0
VERTEX
  8
PTS2DXF
  6
CONTINUOUS
 10
8.365215
 20
55.96046
  0
VERTEX
  8
PTS2DXF
  6
CONTINUOUS
 10
8.360771
 20
55.96098
  0
VERTEX
  8
PTS2DXF
  6
CONTINUOUS
 10
8.362138
 20
55.96483
  0
VERTEX
  8
PTS2DXF
  6
CONTINUOUS
 10
8.355036
 20
55.97017
  0
VERTEX
  8
PTS2DXF
  6
CONTINUOUS
 10
8.347407
 20
55.97231
  0
VERTEX
  8
PTS2DXF
  6
CONTINUOUS
 10
8.344292
 20
55.97577
  0
VERTEX
  8
PTS2DXF
  6
CONTINUOUS
 10
8.33665
 20
55.97769
  0
VERTEX
  8
PTS2DXF
  6
CONTINUOUS
 10
8.331996
 20
55.98344
  0
VERTEX
  8
PTS2DXF
  6
CONTINUOUS
 10
8.32361
 20
55.98719
  0
VERTEX
  8
PTS2DXF
  6
CONTINUOUS
 10
8.318516
 20
56
  0
SEQEND
  0
POLYLINE
100
AcDb2dPolyline
 66
1
  8
PTS2DXF
  6
CONTINUOUS
 10
0
 20
0
 70
0
  0
VERTEX
  8
PTS2DXF
  6
CONTINUOUS
 10
12.58557
 20
55.73483
  0
VERTEX
  8
PTS2DXF
  6
CONTINUOUS
 10
12.58799
 20
55.72054
  0
VERTEX
  8
PTS2DXF
  6
CONTINUOUS
 10
12.59306
 20
55.71916
  0
VERTEX
  8
PTS2DXF
  6
CONTINUOUS
 10
12.60409
 20
55.72278
  0
VERTEX
  8
PTS2DXF
  6
CONTINUOUS
 10
12.60183
 20
55.71259
  0
VERTEX
  8
PTS2DXF
  6
CONTINUOUS
 10
12.60317
 20
55.70772
  0
VERTEX
  8
PTS2DXF
  6
CONTINUOUS
 10
12.59752
 20
55.68785
  0
VERTEX
  8
PTS2DXF
  6
CONTINUOUS
 10
12.57985
 20
55.67446
  0
VERTEX
  8
PTS2DXF
  6
CONTINUOUS
 10
12.56539
 20
55.66642
  0
VERTEX
  8
PTS2DXF
  6
CONTINUOUS
 10
12.5517
 20
55.64668
  0
VERTEX
  8
PTS2DXF
  6
CONTINUOUS
 10
12.53843
 20
55.63561
  0
VERTEX
  8
PTS2DXF
  6
CONTINUOUS
 10
12.53843
 20
55.63561
  0
VERTEX
  8
PTS2DXF
  6
CONTINUOUS
 10
12.53486
 20
55.636
  0
VERTEX
  8
PTS2DXF
  6
CONTINUOUS
 10
12.53292
 20
55.63952
  0
VERTEX
  8
PTS2DXF
  6
CONTINUOUS
 10
12.52851
 20
55.63972
  0
VERTEX
  8
PTS2DXF
  6
CONTINUOUS
 10
12.51176
 20
55.63544
  0
VERTEX
  8
PTS2DXF
  6
CONTINUOUS
 10
12.50964
 20
55.63759
  0
VERTEX
  8
PTS2DXF
  6
CONTINUOUS
 10
12.49709
 20
55.62283
  0
VERTEX
  8
PTS2DXF
  6
CONTINUOUS
 10
12.50159
 20
55.61462
  0
VERTEX
  8
PTS2DXF
  6
CONTINUOUS
 10
12.49811
 20
55.607
  0
VERTEX
  8
PTS2DXF
  6
CONTINUOUS
 10
12.46757
 20
55.6079
  0
VERTEX
  8
PTS2DXF
  6
CONTINUOUS
 10
12.46174
 20
55.60656
  0
VERTEX
  8
PTS2DXF
  6
CONTINUOUS
 10
12.45208
 20
55.60676
  0
VERTEX
  8
PTS2DXF
  6
CONTINUOUS
 10
12.44837
 20
55.61493
  0
VERTEX
  8
PTS2DXF
  6
CONTINUOUS
 10
12.44325
 20
55.61882
  0
VERTEX
  8
PTS2DXF
  6
CONTINUOUS
 10
12.41872
 20
55.61945
  0
VERTEX
  8
PTS2DXF
  6
CONTINUOUS
 10
12.38712
 20
55.61558
  0
VERTEX
  8
PTS2DXF
  6
CONTINUOUS
 10
12.36235
 20
55.60186
  0
VERTEX
  8
PTS2DXF
  6
CONTINUOUS
 10
12.34655
 20
55.59311
  0
VERTEX
  8
PTS2DXF
  6
CONTINUOUS
 10
12.30808
 20
55.57991
  0
VERTEX
  8
PTS2DXF
  6
CONTINUOUS
 10
12.28249
 20
55.56638
  0
VERTEX
  8
PTS2DXF
  6
CONTINUOUS
 10
12.26552
 20
55.56002
  0
VERTEX
  8
PTS2DXF
  6
CONTINUOUS
 10
12.23588
 20
55.53704
  0
VERTEX
  8
PTS2DXF
  6
CONTINUOUS
 10
12.22035
 20
55.51095
  0
VERTEX
  8
PTS2DXF
  6
CONTINUOUS
 10
12.19602
 20
55.46967
  0
VERTEX
  8
PTS2DXF
  6
CONTINUOUS
 10
12.19524
 20
55.46375
  0
VERTEX
  8
PTS2DXF
  6
CONTINUOUS
 10
12.19762
 20
55.46045
  0
VERTEX
  8
PTS2DXF
  6
CONTINUOUS
 10
12.19441
 20
55.45739
  0
VERTEX
  8
PTS2DXF
  6
CONTINUOUS
 10
12.19973
 20
55.4551
  0
VERTEX
  8
PTS2DXF
  6
CONTINUOUS
 10
12.20091
 20
55.44567
  0
VERTEX
  8
PTS2DXF
  6
CONTINUOUS
 10
12.22673
 20
55.42512
  0
VERTEX
  8
PTS2DXF
  6
CONTINUOUS
 10
12.23004
 20
55.4259
  0
VERTEX
  8
PTS2DXF
  6
CONTINUOUS
 10
12.31128
 20
55.40271
  0
VERTEX
  8
PTS2DXF
  6
CONTINUOUS
 10
12.33731
 20
55.40226
  0
VERTEX
  8
PTS2DXF
  6
CONTINUOUS
 10
12.36297
 20
55.39907
  0
VERTEX
  8
PTS2DXF
  6
CONTINUOUS
 10
12.3746
 20
55.39605
  0
VERTEX
  8
PTS2DXF
  6
CONTINUOUS
 10
12.41613
 20
55.3708
  0
VERTEX
  8
PTS2DXF
  6
CONTINUOUS
 10
12.44315
 20
55.35434
  0
VERTEX
  8
PTS2DXF
  6
CONTINUOUS
 10
12.45058
 20
55.34417
  0
VERTEX
  8
PTS2DXF
  6
CONTINUOUS
 10
12.45191
 20
55.33633
  0
VERTEX
  8
PTS2DXF
  6
CONTINUOUS
 10
12.45638
 20
55.33384
  0
VERTEX
  8
PTS2DXF
  6
CONTINUOUS
 10
12.45683
 20
55.3313
  0
VERTEX
  8
PTS2DXF
  6
CONTINUOUS
 10
12.45001
 20
55.32245
  0
VERTEX
  8
PTS2DXF
  6
CONTINUOUS
 10
12.44918
 20
55.30761
  0
VERTEX
  8
PTS2DXF
  6
CONTINUOUS
 10
12.45092
 20
55.30273
  0
VERTEX
  8
PTS2DXF
  6
CONTINUOUS
 10
12.45874
 20
55.29551
  0
VERTEX
  8
PTS2DXF
  6
CONTINUOUS
 10
12.45854
 20
55.29117
  0
VERTEX
  8
PTS2DXF
  6
CONTINUOUS
 10
12.44915
 20
55.27809
  0
VERTEX
  8
PTS2DXF
  6
CONTINUOUS
 10
12.42697
 20
55.2681
  0
VERTEX
  8
PTS2DXF
  6
CONTINUOUS
 10
12.421
 20
55.2641
  0
VERTEX
  8
PTS2DXF
  6
CONTINUOUS
 10
12.41641
 20
55.26102
  0
VERTEX
  8
PTS2DXF
  6
CONTINUOUS
 10
12.39967
 20
55.25558
  0
VERTEX
  8
PTS2DXF
  6
CONTINUOUS
 10
12.37311
 20
55.25447
  0
VERTEX
  8
PTS2DXF
  6
CONTINUOUS
 10
12.36602
 20
55.24929
  0
VERTEX
  8
PTS2DXF
  6
CONTINUOUS
 10
12.36008
 20
55.23788
  0
VERTEX
  8
PTS2DXF
  6
CONTINUOUS
 10
12.3547
 20
55.23652
  0
VERTEX
  8
PTS2DXF
  6
CONTINUOUS
 10
12.33825
 20
55.23907
  0
VERTEX
  8
PTS2DXF
  6
CONTINUOUS
 10
12.30899
 20
55.23852
  0
VERTEX
  8
PTS2DXF
  6
CONTINUOUS
 10
12.26505
 20
55.24181
  0
VERTEX
  8
PTS2DXF
  6
CONTINUOUS
 10
12.24454
 20
55.23789
  0
VERTEX
  8
PTS2DXF
  6
CONTINUOUS
 10
12.23136
 20
55.23266
  0
VERTEX
  8
PTS2DXF
  6
CONTINUOUS
 10
12.21333
 20
55.22551
  0
VERTEX
  8
PTS2DXF
  6
CONTINUOUS
 10
12.19146
 20
55.22324
  0
VERTEX
  8
PTS2DXF
  6
CONTINUOUS
 10
12.15622
 20
55.21033
  0
VERTEX
  8
PTS2DXF
  6
CONTINUOUS
 10
12.14618
 20
55.20069
  0
VERTEX
  8
PTS2DXF
  6
CONTINUOUS
 10
12.14061
 20
55.19154
  0
VERTEX
  8
PTS2DXF
  6
CONTINUOUS
 10
12.12442
 20
55.18674
  0
VERTEX
  8
PTS2DXF
  6
CONTINUOUS
 10
12.11465
 20
55.18212
  0
VERTEX
  8
PTS2DXF
  6
CONTINUOUS
 10
12.11068
 20
55.17611
  0
VERTEX
  8
PTS2DXF
  6
CONTINUOUS
 10
12.11352
 20
55.14533
  0
VERTEX
  8
PTS2DXF
  6
CONTINUOUS
 10
12.10953
 20
55.13909
  0
VERTEX
  8
PTS2DXF
  6
CONTINUOUS
 10
12.10226
 20
55.13528
  0
VERTEX
  8
PTS2DXF
  6
CONTINUOUS
 10
12.09558
 20
55.13602
  0
VERTEX
  8
PTS2DXF
  6
CONTINUOUS
 10
12.09129
 20
55.13368
  0
VERTEX
  8
PTS2DXF
  6
CONTINUOUS
 10
12.08139
 20
55.1373
  0
VERTEX
  8
PTS2DXF
  6
CONTINUOUS
 10
12.08696
 20
55.15285
  0
VERTEX
  8
PTS2DXF
  6
CONTINUOUS
 10
12.08642
 20
55.16111
  0
VERTEX
  8
PTS2DXF
  6
CONTINUOUS
 10
12.08998
 20
55.16714
  0
VERTEX
  8
PTS2DXF
  6
CONTINUOUS
 10
12.09779
 20
55.17208
  0
VERTEX
  8
PTS2DXF
  6
CONTINUOUS
 10
12.0986
 20
55.17524
  0
VERTEX
  8
PTS2DXF
  6
CONTINUOUS
 10
12.0952
 20
55.17676
  0
VERTEX
  8
PTS2DXF
  6
CONTINUOUS
 10
12.06715
 20
55.17588
  0
VERTEX
  8
PTS2DXF
  6
CONTINUOUS
 10
12.047
 20
55.17123
  0
VERTEX
  8
PTS2DXF
  6
CONTINUOUS
 10
12.03273
 20
55.16565
  0
VERTEX
  8
PTS2DXF
  6
CONTINUOUS
 10
12.01773
 20
55.14953
  0
VERTEX
  8
PTS2DXF
  6
CONTINUOUS
 10
12.01612
 20
55.1478
  0
VERTEX
  8
PTS2DXF
  6
CONTINUOUS
 10
12.01929
 20
55.14447
  0
VERTEX
  8
PTS2DXF
  6
CONTINUOUS
 10
12.0358
 20
55.14264
  0
VERTEX
  8
PTS2DXF
  6
CONTINUOUS
 10
12.0433
 20
55.13569
  0
VERTEX
  8
PTS2DXF
  6
CONTINUOUS
 10
12.04327
 20
55.13226
  0
VERTEX
  8
PTS2DXF
  6
CONTINUOUS
 10
12.03901
 20
55.12695
  0
VERTEX
  8
PTS2DXF
  6
CONTINUOUS
 10
12.04065
 20
55.12413
  0
VERTEX
  8
PTS2DXF
  6
CONTINUOUS
 10
12.05377
 20
55.12702
  0
VERTEX
  8
PTS2DXF
  6
CONTINUOUS
 10
12.05506
 20
55.12147
  0
VERTEX
  8
PTS2DXF
  6
CONTINUOUS
 10
12.06018
 20
55.12103
  0
VERTEX
  8
PTS2DXF
  6
CONTINUOUS
 10
12.06839
 20
55.12915
  0
VERTEX
  8
PTS2DXF
  6
CONTINUOUS
 10
12.08638
 20
55.12954
  0
VERTEX
  8
PTS2DXF
  6
CONTINUOUS
 10
12.09099
 20
55.1282
  0
VERTEX
  8
PTS2DXF
  6
CONTINUOUS
 10
12.09206
 20
55.12404
  0
VERTEX
  8
PTS2DXF
  6
CONTINUOUS
 10
12.1027
 20
55.12313
  0
VERTEX
  8
PTS2DXF
  6
CONTINUOUS
 10
12.10957
 20
55.12696
  0
VERTEX
  8
PTS2DXF
  6
CONTINUOUS
 10
12.10162
 20
55.13027
  0
VERTEX
  8
PTS2DXF
  6
CONTINUOUS
 10
12.11418
 20
55.1318
  0
VERTEX
  8
PTS2DXF
  6
CONTINUOUS
 10
12.12718
 20
55.13056
  0
VERTEX
  8
PTS2DXF
  6
CONTINUOUS
 10
12.1301
 20
55.13158
  0
VERTEX
  8
PTS2DXF
  6
CONTINUOUS
 10
12.15244
 20
55.12857
  0
VERTEX
  8
PTS2DXF
  6
CONTINUOUS
 10
12.16554
 20
55.12504
  0
VERTEX
  8
PTS2DXF
  6
CONTINUOUS
 10
12.18541
 20
55.11229
  0
VERTEX
  8
PTS2DXF
  6
CONTINUOUS
 10
12.18406
 20
55.108
  0
VERTEX
  8
PTS2DXF
  6
CONTINUOUS
 10
12.17509
 20
55.10335
  0
VERTEX
  8
PTS2DXF
  6
CONTINUOUS
 10
12.17215
 20
55.09913
  0
VERTEX
  8
PTS2DXF
  6
CONTINUOUS
 10
12.17275
 20
55.08835
  0
VERTEX
  8
PTS2DXF
  6
CONTINUOUS
 10
12.15721
 20
55.07597
  0
VERTEX
  8
PTS2DXF
  6
CONTINUOUS
 10
12.15235
 20
55.07846
  0
VERTEX
  8
PTS2DXF
  6
CONTINUOUS
 10
12.13762
 20
55.08161
  0
VERTEX
  8
PTS2DXF
  6
CONTINUOUS
 10
12.1274
 20
55.07952
  0
VERTEX
  8
PTS2DXF
  6
CONTINUOUS
 10
12.12165
 20
55.08435
  0
VERTEX
  8
PTS2DXF
  6
CONTINUOUS
 10
12.11531
 20
55.08461
  0
VERTEX
  8
PTS2DXF
  6
CONTINUOUS
 10
12.11111
 20
55.08914
  0
VERTEX
  8
PTS2DXF
  6
CONTINUOUS
 10
12.10471
 20
55.08895
  0
VERTEX
  8
PTS2DXF
  6
CONTINUOUS
 10
12.10467
 20
55.08552
  0
VERTEX
  8
PTS2DXF
  6
CONTINUOUS
 10
12.10844
 20
55.08462
  0
VERTEX
  8
PTS2DXF
  6
CONTINUOUS
 10
12.11742
 20
55.08247
  0
VERTEX
  8
PTS2DXF
  6
CONTINUOUS
 10
12.1208
 20
55.07775
  0
VERTEX
  8
PTS2DXF
  6
CONTINUOUS
 10
12.11966
 20
55.07505
  0
VERTEX
  8
PTS2DXF
  6
CONTINUOUS
 10
12.1254
 20
55.0732
  0
VERTEX
  8
PTS2DXF
  6
CONTINUOUS
 10
12.1259
 20
55.07089
  0
VERTEX
  8
PTS2DXF
  6
CONTINUOUS
 10
12.11884
 20
55.06868
  0
VERTEX
  8
PTS2DXF
  6
CONTINUOUS
 10
12.13064
 20
55.05513
  0
VERTEX
  8
PTS2DXF
  6
CONTINUOUS
 10
12.12776
 20
55.04816
  0
VERTEX
  8
PTS2DXF
  6
CONTINUOUS
 10
12.14432
 20
55.047
  0
VERTEX
  8
PTS2DXF
  6
CONTINUOUS
 10
12.14677
 20
55.04438
  0
VERTEX
  8
PTS2DXF
  6
CONTINUOUS
 10
12.14147
 20
55.04025
  0
VERTEX
  8
PTS2DXF
  6
CONTINUOUS
 10
12.15238
 20
55.02926
  0
VERTEX
  8
PTS2DXF
  6
CONTINUOUS
 10
12.17411
 20
55
  0
VERTEX
  8
PTS2DXF
  6
CONTINUOUS
 10
12.17196
 20
54.99295
  0
VERTEX
  8
PTS2DXF
  6
CONTINUOUS
 10
12.15468
 20
54.99461
  0
VERTEX
  8
PTS2DXF
  6
CONTINUOUS
 10
12.14433
 20
54.99139
  0
VERTEX
  8
PTS2DXF
  6
CONTINUOUS
 10
12.12618
 20
54.99239
  0
VERTEX
  8
PTS2DXF
  6
CONTINUOUS
 10
12.11262
 20
54.98885
  0
VERTEX
  8
PTS2DXF
  6
CONTINUOUS
 10
12.10573
 20
54.98159
  0
VERTEX
  8
PTS2DXF
  6
CONTINUOUS
 10
12.1009
 20
54.9811
  0
VERTEX
  8
PTS2DXF
  6
CONTINUOUS
 10
12.08057
 20
54.968
  0
VERTEX
  8
PTS2DXF
  6
CONTINUOUS
 10
12.06609
 20
54.96398
  0
VERTEX
  8
PTS2DXF
  6
CONTINUOUS
 10
12.05053
 20
54.95966
  0
VERTEX
  8
PTS2DXF
  6
CONTINUOUS
 10
12.02956
 20
54.9603
  0
VERTEX
  8
PTS2DXF
  6
CONTINUOUS
 10
12.01106
 20
54.96474
  0
VERTEX
  8
PTS2DXF
  6
CONTINUOUS
 10
11.98248
 20
54.97439
  0
VERTEX
  8
PTS2DXF
  6
CONTINUOUS
 10
11.96216
 20
54.98667
  0
VERTEX
  8
PTS2DXF
  6
CONTINUOUS
 10
11.95383
 20
54.9964
  0
VERTEX
  8
PTS2DXF
  6
CONTINUOUS
 10
11.93959
 20
54.99698
  0
VERTEX
  8
PTS2DXF
  6
CONTINUOUS
 10
11.93448
 20
55
  0
VERTEX
  8
PTS2DXF
  6
CONTINUOUS
 10
11.93293
 20
55.00092
  0
VERTEX
  8
PTS2DXF
  6
CONTINUOUS
 10
11.91973
 20
55.00351
  0
VERTEX
  8
PTS2DXF
  6
CONTINUOUS
 10
11.9213
 20
55
  0
VERTEX
  8
PTS2DXF
  6
CONTINUOUS
 10
11.92378
 20
54.99442
  0
VERTEX
  8
PTS2DXF
  6
CONTINUOUS
 10
11.92006
 20
54.9932
  0
VERTEX
  8
PTS2DXF
  6
CONTINUOUS
 10
11.91336
 20
54.99371
  0
VERTEX
  8
PTS2DXF
  6
CONTINUOUS
 10
11.90794
 20
54.99164
  0
VERTEX
  8
PTS2DXF
  6
CONTINUOUS
 10
11.90167
 20
54.99295
  0
VERTEX
  8
PTS2DXF
  6
CONTINUOUS
 10
11.8971
 20
54.99391
  0
VERTEX
  8
PTS2DXF
  6
CONTINUOUS
 10
11.89192
 20
55
  0
VERTEX
  8
PTS2DXF
  6
CONTINUOUS
 10
11.87067
 20
55.00528
  0
VERTEX
  8
PTS2DXF
  6
CONTINUOUS
 10
11.85301
 20
55.01698
  0
VERTEX
  8
PTS2DXF
  6
CONTINUOUS
 10
11.83529
 20
55.02158
  0
VERTEX
  8
PTS2DXF
  6
CONTINUOUS
 10
11.82033
 20
55.0327
  0
VERTEX
  8
PTS2DXF
  6
CONTINUOUS
 10
11.7899
 20
55.04421
  0
VERTEX
  8
PTS2DXF
  6
CONTINUOUS
 10
11.76748
 20
55.04967
  0
VERTEX
  8
PTS2DXF
  6
CONTINUOUS
 10
11.74083
 20
55.05302
  0
VERTEX
  8
PTS2DXF
  6
CONTINUOUS
 10
11.72352
 20
55.05798
  0
VERTEX
  8
PTS2DXF
  6
CONTINUOUS
 10
11.68946
 20
55.06775
  0
VERTEX
  8
PTS2DXF
  6
CONTINUOUS
 10
11.66765
 20
55.07276
  0
VERTEX
  8
PTS2DXF
  6
CONTINUOUS
 10
11.66159
 20
55.07281
  0
VERTEX
  8
PTS2DXF
  6
CONTINUOUS
 10
11.64786
 20
55.07792
  0
VERTEX
  8
PTS2DXF
  6
CONTINUOUS
 10
11.6402
 20
55.07707
  0
VERTEX
  8
PTS2DXF
  6
CONTINUOUS
 10
11.62319
 20
55.08138
  0
VERTEX
  8
PTS2DXF
  6
CONTINUOUS
 10
11.62263
 20
55.08347
  0
VERTEX
  8
PTS2DXF
  6
CONTINUOUS
 10
11.63191
 20
55.08448
  0
VERTEX
  8
PTS2DXF
  6
CONTINUOUS
 10
11.67367
 20
55.0743
  0
VERTEX
  8
PTS2DXF
  6
CONTINUOUS
 10
11.7213
 20
55.06614
  0
VERTEX
  8
PTS2DXF
  6
CONTINUOUS
 10
11.75124
 20
55.06359
  0
VERTEX
  8
PTS2DXF
  6
CONTINUOUS
 10
11.77495
 20
55.05556
  0
VERTEX
  8
PTS2DXF
  6
CONTINUOUS
 10
11.80098
 20
55.0504
  0
VERTEX
  8
PTS2DXF
  6
CONTINUOUS
 10
11.81724
 20
55.04335
  0
VERTEX
  8
PTS2DXF
  6
CONTINUOUS
 10
11.82971
 20
55.04125
  0
VERTEX
  8
PTS2DXF
  6
CONTINUOUS
 10
11.83493
 20
55.04493
  0
VERTEX
  8
PTS2DXF
  6
CONTINUOUS
 10
11.83521
 20
55.0472
  0
VERTEX
  8
PTS2DXF
  6
CONTINUOUS
 10
11.83256
 20
55.05166
  0
VERTEX
  8
PTS2DXF
  6
CONTINUOUS
 10
11.81709
 20
55.06189
  0
VERTEX
  8
PTS2DXF
  6
CONTINUOUS
 10
11.81154
 20
55.07195
  0
VERTEX
  8
PTS2DXF
  6
CONTINUOUS
 10
11.79706
 20
55.07732
  0
VERTEX
  8
PTS2DXF
  6
CONTINUOUS
 10
11.78579
 20
55.07961
  0
VERTEX
  8
PTS2DXF
  6
CONTINUOUS
 10
11.78105
 20
55.08344
  0
VERTEX
  8
PTS2DXF
  6
CONTINUOUS
 10
11.77926
 20
55.0849
  0
VERTEX
  8
PTS2DXF
  6
CONTINUOUS
 10
11.77926
 20
55.0849
  0
VERTEX
  8
PTS2DXF
  6
CONTINUOUS
 10
11.77794
 20
55.08723
  0
VERTEX
  8
PTS2DXF
  6
CONTINUOUS
 10
11.7689
 20
55.08485
  0
VERTEX
  8
PTS2DXF
  6
CONTINUOUS
 10
11.77501
 20
55.07935
  0
VERTEX
  8
PTS2DXF
  6
CONTINUOUS
 10
11.77505
 20
55.07637
  0
VERTEX
  8
PTS2DXF
  6
CONTINUOUS
 10
11.7709
 20
55.07493
  0
VERTEX
  8
PTS2DXF
  6
CONTINUOUS
 10
11.76419
 20
55.07543
  0
VERTEX
  8
PTS2DXF
  6
CONTINUOUS
 10
11.74806
 20
55.08704
  0
VERTEX
  8
PTS2DXF
  6
CONTINUOUS
 10
11.75853
 20
55.08801
  0
VERTEX
  8
PTS2DXF
  6
CONTINUOUS
 10
11.76679
 20
55.09385
  0
VERTEX
  8
PTS2DXF
  6
CONTINUOUS
 10
11.76304
 20
55.09411
  0
VERTEX
  8
PTS2DXF
  6
CONTINUOUS
 10
11.76304
 20
55.09411
  0
VERTEX
  8
PTS2DXF
  6
CONTINUOUS
 10
11.74615
 20
55.09444
  0
VERTEX
  8
PTS2DXF
  6
CONTINUOUS
 10
11.72537
 20
55.11058
  0
VERTEX
  8
PTS2DXF
  6
CONTINUOUS
 10
11.72127
 20
55.11966
  0
VERTEX
  8
PTS2DXF
  6
CONTINUOUS
 10
11.72384
 20
55.12444
  0
VERTEX
  8
PTS2DXF
  6
CONTINUOUS
 10
11.72989
 20
55.12848
  0
VERTEX
  8
PTS2DXF
  6
CONTINUOUS
 10
11.73313
 20
55.1256
  0
VERTEX
  8
PTS2DXF
  6
CONTINUOUS
 10
11.73125
 20
55.12316
  0
VERTEX
  8
PTS2DXF
  6
CONTINUOUS
 10
11.73333
 20
55.12056
  0
VERTEX
  8
PTS2DXF
  6
CONTINUOUS
 10
11.74661
 20
55.12164
  0
VERTEX
  8
PTS2DXF
  6
CONTINUOUS
 10
11.76416
 20
55.11843
  0
VERTEX
  8
PTS2DXF
  6
CONTINUOUS
 10
11.76712
 20
55.11992
  0
VERTEX
  8
PTS2DXF
  6
CONTINUOUS
 10
11.77003
 20
55.12758
  0
VERTEX
  8
PTS2DXF
  6
CONTINUOUS
 10
11.77613
 20
55.13191
  0
VERTEX
  8
PTS2DXF
  6
CONTINUOUS
 10
11.78344
 20
55.133
  0
VERTEX
  8
PTS2DXF
  6
CONTINUOUS
 10
11.79801
 20
55.1315
  0
VERTEX
  8
PTS2DXF
  6
CONTINUOUS
 10
11.80825
 20
55.1272
  0
VERTEX
  8
PTS2DXF
  6
CONTINUOUS
 10
11.81257
 20
55.13001
  0
VERTEX
  8
PTS2DXF
  6
CONTINUOUS
 10
11.81911
 20
55.13135
  0
VERTEX
  8
PTS2DXF
  6
CONTINUOUS
 10
11.81812
 20
55.13663
  0
VERTEX
  8
PTS2DXF
  6
CONTINUOUS
 10
11.81596
 20
55.14817
  0
VERTEX
  8
PTS2DXF
  6
CONTINUOUS
 10
11.79273
 20
55.1539
  0
VERTEX
  8
PTS2DXF
  6
CONTINUOUS
 10
11.78888
 20
55.15176
  0
VERTEX
  8
PTS2DXF
  6
CONTINUOUS
 10
11.78857
 20
55.14583
  0
VERTEX
  8
PTS2DXF
  6
CONTINUOUS
 10
11.77995
 20
55.14709
  0
VERTEX
  8
PTS2DXF
  6
CONTINUOUS
 10
11.77369
 20
55.15145
  0
VERTEX
  8
PTS2DXF
  6
CONTINUOUS
 10
11.77836
 20
55.15378
  0
VERTEX
  8
PTS2DXF
  6
CONTINUOUS
 10
11.77715
 20
55.15703
  0
VERTEX
  8
PTS2DXF
  6
CONTINUOUS
 10
11.76566
 20
55.15429
  0
VERTEX
  8
PTS2DXF
  6
CONTINUOUS
 10
11.75523
 20
55.15378
  0
VERTEX
  8
PTS2DXF
  6
CONTINUOUS
 10
11.7451
 20
55.15578
  0
VERTEX
  8
PTS2DXF
  6
CONTINUOUS
 10
11.73599
 20
55.15294
  0
VERTEX
  8
PTS2DXF
  6
CONTINUOUS
 10
11.72654
 20
55.154
  0
VERTEX
  8
PTS2DXF
  6
CONTINUOUS
 10
11.71816
 20
55.1573
  0
VERTEX
  8
PTS2DXF
  6
CONTINUOUS
 10
11.71784
 20
55.16806
  0
VERTEX
  8
PTS2DXF
  6
CONTINUOUS
 10
11.72852
 20
55.17405
  0
VERTEX
  8
PTS2DXF
  6
CONTINUOUS
 10
11.73965
 20
55.17704
  0
VERTEX
  8
PTS2DXF
  6
CONTINUOUS
 10
11.74573
 20
55.18114
  0
VERTEX
  8
PTS2DXF
  6
CONTINUOUS
 10
11.74566
 20
55.1839
  0
VERTEX
  8
PTS2DXF
  6
CONTINUOUS
 10
11.74348
 20
55.18501
  0
VERTEX
  8
PTS2DXF
  6
CONTINUOUS
 10
11.74227
 20
55.18563
  0
VERTEX
  8
PTS2DXF
  6
CONTINUOUS
 10
11.73194
 20
55.1826
  0
VERTEX
  8
PTS2DXF
  6
CONTINUOUS
 10
11.72921
 20
55.18317
  0
VERTEX
  8
PTS2DXF
  6
CONTINUOUS
 10
11.73089
 20
55.18722
  0
VERTEX
  8
PTS2DXF
  6
CONTINUOUS
 10
11.74445
 20
55.1972
  0
VERTEX
  8
PTS2DXF
  6
CONTINUOUS
 10
11.73172
 20
55.20091
  0
VERTEX
  8
PTS2DXF
  6
CONTINUOUS
 10
11.72683
 20
55.20339
  0
VERTEX
  8
PTS2DXF
  6
CONTINUOUS
 10
11.72601
 20
55.20662
  0
VERTEX
  8
PTS2DXF
  6
CONTINUOUS
 10
11.71836
 20
55.20943
  0
VERTEX
  8
PTS2DXF
  6
CONTINUOUS
 10
11.7077
 20
55.20711
  0
VERTEX
  8
PTS2DXF
  6
CONTINUOUS
 10
11.69788
 20
55.2084
  0
VERTEX
  8
PTS2DXF
  6
CONTINUOUS
 10
11.69101
 20
55.20776
  0
VERTEX
  8
PTS2DXF
  6
CONTINUOUS
 10
11.67757
 20
55.2021
  0
VERTEX
  8
PTS2DXF
  6
CONTINUOUS
 10
11.67431
 20
55.20154
  0
VERTEX
  8
PTS2DXF
  6
CONTINUOUS
 10
11.67266
 20
55.19772
  0
VERTEX
  8
PTS2DXF
  6
CONTINUOUS
 10
11.65805
 20
55.18548
  0
VERTEX
  8
PTS2DXF
  6
CONTINUOUS
 10
11.65887
 20
55.18224
  0
VERTEX
  8
PTS2DXF
  6
CONTINUOUS
 10
11.65031
 20
55.17731
  0
VERTEX
  8
PTS2DXF
  6
CONTINUOUS
 10
11.64674
 20
55.17745
  0
VERTEX
  8
PTS2DXF
  6
CONTINUOUS
 10
11.63962
 20
55.18139
  0
VERTEX
  8
PTS2DXF
  6
CONTINUOUS
 10
11.61755
 20
55.18383
  0
VERTEX
  8
PTS2DXF
  6
CONTINUOUS
 10
11.60177
 20
55.18878
  0
VERTEX
  8
PTS2DXF
  6
CONTINUOUS
 10
11.55367
 20
55.19038
  0
VERTEX
  8
PTS2DXF
  6
CONTINUOUS
 10
11.54333
 20
55.1942
  0
VERTEX
  8
PTS2DXF
  6
CONTINUOUS
 10
11.5124
 20
55.19948
  0
VERTEX
  8
PTS2DXF
  6
CONTINUOUS
 10
11.50363
 20
55.19958
  0
VERTEX
  8
PTS2DXF
  6
CONTINUOUS
 10
11.49465
 20
55.19785
  0
VERTEX
  8
PTS2DXF
  6
CONTINUOUS
 10
11.49445
 20
55.20312
  0
VERTEX
  8
PTS2DXF
  6
CONTINUOUS
 10
11.49029
 20
55.2051
  0
VERTEX
  8
PTS2DXF
  6
CONTINUOUS
 10
11.48289
 20
55.20675
  0
VERTEX
  8
PTS2DXF
  6
CONTINUOUS
 10
11.47076
 20
55.20538
  0
VERTEX
  8
PTS2DXF
  6
CONTINUOUS
 10
11.46939
 20
55.21091
  0
VERTEX
  8
PTS2DXF
  6
CONTINUOUS
 10
11.45829
 20
55.21521
  0
VERTEX
  8
PTS2DXF
  6
CONTINUOUS
 10
11.45287
 20
55.21312
  0
VERTEX
  8
PTS2DXF
  6
CONTINUOUS
 10
11.44852
 20
55.21352
  0
VERTEX
  8
PTS2DXF
  6
CONTINUOUS
 10
11.43906
 20
55.21821
  0
VERTEX
  8
PTS2DXF
  6
CONTINUOUS
 10
11.4322
 20
55.21754
  0
VERTEX
  8
PTS2DXF
  6
CONTINUOUS
 10
11.42731
 20
55.2095
  0
VERTEX
  8
PTS2DXF
  6
CONTINUOUS
 10
11.42266
 20
55.20715
  0
VERTEX
  8
PTS2DXF
  6
CONTINUOUS
 10
11.41816
 20
55.20617
  0
VERTEX
  8
PTS2DXF
  6
CONTINUOUS
 10
11.40116
 20
55.20771
  0
VERTEX
  8
PTS2DXF
  6
CONTINUOUS
 10
11.38915
 20
55.2038
  0
VERTEX
  8
PTS2DXF
  6
CONTINUOUS
 10
11.38258
 20
55.19855
  0
VERTEX
  8
PTS2DXF
  6
CONTINUOUS
 10
11.3765
 20
55.19764
  0
VERTEX
  8
PTS2DXF
  6
CONTINUOUS
 10
11.36937
 20
55.19812
  0
VERTEX
  8
PTS2DXF
  6
CONTINUOUS
 10
11.35499
 20
55.20893
  0
VERTEX
  8
PTS2DXF
  6
CONTINUOUS
 10
11.34726
 20
55.20761
  0
VERTEX
  8
PTS2DXF
  6
CONTINUOUS
 10
11.34209
 20
55.20048
  0
VERTEX
  8
PTS2DXF
  6
CONTINUOUS
 10
11.33843
 20
55.20133
  0
VERTEX
  8
PTS2DXF
  6
CONTINUOUS
 10
11.33742
 20
55.20156
  0
VERTEX
  8
PTS2DXF
  6
CONTINUOUS
 10
11.33119
 20
55.21025
  0
VERTEX
  8
PTS2DXF
  6
CONTINUOUS
 10
11.32279
 20
55.21009
  0
VERTEX
  8
PTS2DXF
  6
CONTINUOUS
 10
11.31689
 20
55.20002
  0
VERTEX
  8
PTS2DXF
  6
CONTINUOUS
 10
11.32127
 20
55.1962
  0
VERTEX
  8
PTS2DXF
  6
CONTINUOUS
 10
11.35101
 20
55.19254
  0
VERTEX
  8
PTS2DXF
  6
CONTINUOUS
 10
11.34749
 20
55.19076
  0
VERTEX
  8
PTS2DXF
  6
CONTINUOUS
 10
11.33523
 20
55.1925
  0
VERTEX
  8
PTS2DXF
  6
CONTINUOUS
 10
11.32559
 20
55.19193
  0
VERTEX
  8
PTS2DXF
  6
CONTINUOUS
 10
11.31861
 20
55.19378
  0
VERTEX
  8
PTS2DXF
  6
CONTINUOUS
 10
11.30092
 20
55.19259
  0
VERTEX
  8
PTS2DXF
  6
CONTINUOUS
 10
11.29625
 20
55.19367
  0
VERTEX
  8
PTS2DXF
  6
CONTINUOUS
 10
11.28785
 20
55.20083
  0
VERTEX
  8
PTS2DXF
  6
CONTINUOUS
 10
11.26551
 20
55.20094
  0
VERTEX
  8
PTS2DXF
  6
CONTINUOUS
 10
11.24863
 20
55.21091
  0
VERTEX
  8
PTS2DXF
  6
CONTINUOUS
 10
11.24111
 20
55.21894
  0
VERTEX
  8
PTS2DXF
  6
CONTINUOUS
 10
11.24174
 20
55.21952
  0
VERTEX
  8
PTS2DXF
  6
CONTINUOUS
 10
11.24376
 20
55.22137
  0
VERTEX
  8
PTS2DXF
  6
CONTINUOUS
 10
11.25214
 20
55.2213
  0
VERTEX
  8
PTS2DXF
  6
CONTINUOUS
 10
11.2547
 20
55.22281
  0
VERTEX
  8
PTS2DXF
  6
CONTINUOUS
 10
11.2413
 20
55.23563
  0
VERTEX
  8
PTS2DXF
  6
CONTINUOUS
 10
11.23724
 20
55.2424
  0
VERTEX
  8
PTS2DXF
  6
CONTINUOUS
 10
11.2387
 20
55.24486
  0
VERTEX
  8
PTS2DXF
  6
CONTINUOUS
 10
11.2479
 20
55.245
  0
VERTEX
  8
PTS2DXF
  6
CONTINUOUS
 10
11.25131
 20
55.24327
  0
VERTEX
  8
PTS2DXF
  6
CONTINUOUS
 10
11.25141
 20
55.24053
  0
VERTEX
  8
PTS2DXF
  6
CONTINUOUS
 10
11.26328
 20
55.23942
  0
VERTEX
  8
PTS2DXF
  6
CONTINUOUS
 10
11.28275
 20
55.23484
  0
VERTEX
  8
PTS2DXF
  6
CONTINUOUS
 10
11.28518
 20
55.24253
  0
VERTEX
  8
PTS2DXF
  6
CONTINUOUS
 10
11.29324
 20
55.25047
  0
VERTEX
  8
PTS2DXF
  6
CONTINUOUS
 10
11.29072
 20
55.25308
  0
VERTEX
  8
PTS2DXF
  6
CONTINUOUS
 10
11.2806
 20
55.24818
  0
VERTEX
  8
PTS2DXF
  6
CONTINUOUS
 10
11.27309
 20
55.24091
  0
VERTEX
  8
PTS2DXF
  6
CONTINUOUS
 10
11.2671
 20
55.24111
  0
VERTEX
  8
PTS2DXF
  6
CONTINUOUS
 10
11.2621
 20
55.24701
  0
VERTEX
  8
PTS2DXF
  6
CONTINUOUS
 10
11.24476
 20
55.24922
  0
VERTEX
  8
PTS2DXF
  6
CONTINUOUS
 10
11.24438
 20
55.25312
  0
VERTEX
  8
PTS2DXF
  6
CONTINUOUS
 10
11.24558
 20
55.25512
  0
VERTEX
  8
PTS2DXF
  6
CONTINUOUS
 10
11.24924
 20
55.26118
  0
VERTEX
  8
PTS2DXF
  6
CONTINUOUS
 10
11.23976
 20
55.27706
  0
VERTEX
  8
PTS2DXF
  6
CONTINUOUS
 10
11.24086
 20
55.28365
  0
VERTEX
  8
PTS2DXF
  6
CONTINUOUS
 10
11.23413
 20
55.29166
  0
VERTEX
  8
PTS2DXF
  6
CONTINUOUS
 10
11.1763
 20
55.30831
  0
VERTEX
  8
PTS2DXF
  6
CONTINUOUS
 10
11.15724
 20
55.32108
  0
VERTEX
  8
PTS2DXF
  6
CONTINUOUS
 10
11.13778
 20
55.32739
  0
VERTEX
  8
PTS2DXF
  6
CONTINUOUS
 10
11.14266
 20
55.32875
  0
VERTEX
  8
PTS2DXF
  6
CONTINUOUS
 10
11.1417
 20
55.33382
  0
VERTEX
  8
PTS2DXF
  6
CONTINUOUS
 10
11.14514
 20
55.33468
  0
VERTEX
  8
PTS2DXF
  6
CONTINUOUS
 10
11.14878
 20
55.33066
  0
VERTEX
  8
PTS2DXF
  6
CONTINUOUS
 10
11.15586
 20
55.33028
  0
VERTEX
  8
PTS2DXF
  6
CONTINUOUS
 10
11.16217
 20
55.32932
  0
VERTEX
  8
PTS2DXF
  6
CONTINUOUS
 10
11.17461
 20
55.3299
  0
VERTEX
  8
PTS2DXF
  6
CONTINUOUS
 10
11.18102
 20
55.3275
  0
VERTEX
  8
PTS2DXF
  6
CONTINUOUS
 10
11.19126
 20
55.32693
  0
VERTEX
  8
PTS2DXF
  6
CONTINUOUS
 10
11.19585
 20
55.33477
  0
VERTEX
  8
PTS2DXF
  6
CONTINUOUS
 10
11.20953
 20
55.3386
  0
VERTEX
  8
PTS2DXF
  6
CONTINUOUS
 10
11.21259
 20
55.34252
  0
VERTEX
  8
PTS2DXF
  6
CONTINUOUS
 10
11.21029
 20
55.34625
  0
VERTEX
  8
PTS2DXF
  6
CONTINUOUS
 10
11.20063
 20
55.34788
  0
VERTEX
  8
PTS2DXF
  6
CONTINUOUS
 10
11.18705
 20
55.35506
  0
VERTEX
  8
PTS2DXF
  6
CONTINUOUS
 10
11.17432
 20
55.35563
  0
VERTEX
  8
PTS2DXF
  6
CONTINUOUS
 10
11.16648
 20
55.35429
  0
VERTEX
  8
PTS2DXF
  6
CONTINUOUS
 10
11.16256
 20
55.35171
  0
VERTEX
  8
PTS2DXF
  6
CONTINUOUS
 10
11.16523
 20
55.34817
  0
VERTEX
  8
PTS2DXF
  6
CONTINUOUS
 10
11.16189
 20
55.34501
  0
VERTEX
  8
PTS2DXF
  6
CONTINUOUS
 10
11.16724
 20
55.34032
  0
VERTEX
  8
PTS2DXF
  6
CONTINUOUS
 10
11.16667
 20
55.3385
  0
VERTEX
  8
PTS2DXF
  6
CONTINUOUS
 10
11.155
 20
55.33812
  0
VERTEX
  8
PTS2DXF
  6
CONTINUOUS
 10
11.15251
 20
55.33774
  0
VERTEX
  8
PTS2DXF
  6
CONTINUOUS
 10
11.15194
 20
55.33276
  0
VERTEX
  8
PTS2DXF
  6
CONTINUOUS
 10
11.14954
 20
55.33286
  0
VERTEX
  8
PTS2DXF
  6
CONTINUOUS
 10
11.14581
 20
55.3363
  0
VERTEX
  8
PTS2DXF
  6
CONTINUOUS
 10
11.13414
 20
55.33429
  0
VERTEX
  8
PTS2DXF
  6
CONTINUOUS
 10
11.13293
 20
55.33723
  0
VERTEX
  8
PTS2DXF
  6
CONTINUOUS
 10
11.12256
 20
55.34147
  0
VERTEX
  8
PTS2DXF
  6
CONTINUOUS
 10
11.11335
 20
55.3491
  0
VERTEX
  8
PTS2DXF
  6
CONTINUOUS
 10
11.10068
 20
55.35044
  0
VERTEX
  8
PTS2DXF
  6
CONTINUOUS
 10
11.09779
 20
55.34963
  0
VERTEX
  8
PTS2DXF
  6
CONTINUOUS
 10
11.0973
 20
55.35262
  0
VERTEX
  8
PTS2DXF
  6
CONTINUOUS
 10
11.117
 20
55.37252
  0
VERTEX
  8
PTS2DXF
  6
CONTINUOUS
 10
11.12531
 20
55.36766
  0
VERTEX
  8
PTS2DXF
  6
CONTINUOUS
 10
11.15065
 20
55.36862
  0
VERTEX
  8
PTS2DXF
  6
CONTINUOUS
 10
11.1663
 20
55.37265
  0
VERTEX
  8
PTS2DXF
  6
CONTINUOUS
 10
11.1791
 20
55.37998
  0
VERTEX
  8
PTS2DXF
  6
CONTINUOUS
 10
11.20599
 20
55.38407
  0
VERTEX
  8
PTS2DXF
  6
CONTINUOUS
 10
11.22044
 20
55.39545
  0
VERTEX
  8
PTS2DXF
  6
CONTINUOUS
 10
11.21659
 20
55.4045
  0
VERTEX
  8
PTS2DXF
  6
CONTINUOUS
 10
11.20137
 20
55.41965
  0
VERTEX
  8
PTS2DXF
  6
CONTINUOUS
 10
11.19998
 20
55.42542
  0
VERTEX
  8
PTS2DXF
  6
CONTINUOUS
 10
11.20776
 20
55.44183
  0
VERTEX
  8
PTS2DXF
  6
CONTINUOUS
 10
11.20788
 20
55.45051
  0
VERTEX
  8
PTS2DXF
  6
CONTINUOUS
 10
11.18237
 20
55.47859
  0
VERTEX
  8
PTS2DXF
  6
CONTINUOUS
 10
11.18278
 20
55.49001
  0
VERTEX
  8
PTS2DXF
  6
CONTINUOUS
 10
11.17613
 20
55.50303
  0
VERTEX
  8
PTS2DXF
  6
CONTINUOUS
 10
11.16256
 20
55.5102
  0
VERTEX
  8
PTS2DXF
  6
CONTINUOUS
 10
11.159
 20
55.51208
  0
VERTEX
  8
PTS2DXF
  6
CONTINUOUS
 10
11.12791
 20
55.53371
  0
VERTEX
  8
PTS2DXF
  6
CONTINUOUS
 10
11.12511
 20
55.5338
  0
VERTEX
  8
PTS2DXF
  6
CONTINUOUS
 10
11.12142
 20
55.52936
  0
VERTEX
  8
PTS2DXF
  6
CONTINUOUS
 10
11.12711
 20
55.52231
  0
VERTEX
  8
PTS2DXF
  6
CONTINUOUS
 10
11.12163
 20
55.5161
  0
VERTEX
  8
PTS2DXF
  6
CONTINUOUS
 10
11.11093
 20
55.51372
  0
VERTEX
  8
PTS2DXF
  6
CONTINUOUS
 10
11.09856
 20
55.5146
  0
VERTEX
  8
PTS2DXF
  6
CONTINUOUS
 10
11.09244
 20
55.51755
  0
VERTEX
  8
PTS2DXF
  6
CONTINUOUS
 10
11.08758
 20
55.51725
  0
VERTEX
  8
PTS2DXF
  6
CONTINUOUS
 10
11.08626
 20
55.52004
  0
VERTEX
  8
PTS2DXF
  6
CONTINUOUS
 10
11.09571
 20
55.53732
  0
VERTEX
  8
PTS2DXF
  6
CONTINUOUS
 10
11.10109
 20
55.53873
  0
VERTEX
  8
PTS2DXF
  6
CONTINUOUS
 10
11.10851
 20
55.53665
  0
VERTEX
  8
PTS2DXF
  6
CONTINUOUS
 10
11.11497
 20
55.53689
  0
VERTEX
  8
PTS2DXF
  6
CONTINUOUS
 10
11.12658
 20
55.54015
  0
VERTEX
  8
PTS2DXF
  6
CONTINUOUS
 10
11.14478
 20
55.53724
  0
VERTEX
  8
PTS2DXF
  6
CONTINUOUS
 10
11.14722
 20
55.5361
  0
VERTEX
  8
PTS2DXF
  6
CONTINUOUS
 10
11.149
 20
55.53527
  0
VERTEX
  8
PTS2DXF
  6
CONTINUOUS
 10
11.15588
 20
55.53572
  0
VERTEX
  8
PTS2DXF
  6
CONTINUOUS
 10
11.15749
 20
55.53955
  0
VERTEX
  8
PTS2DXF
  6
CONTINUOUS
 10
11.14985
 20
55.53958
  0
VERTEX
  8
PTS2DXF
  6
CONTINUOUS
 10
11.15699
 20
55.54619
  0
VERTEX
  8
PTS2DXF
  6
CONTINUOUS
 10
11.16271
 20
55.55833
  0
VERTEX
  8
PTS2DXF
  6
CONTINUOUS
 10
11.16408
 20
55.56743
  0
VERTEX
  8
PTS2DXF
  6
CONTINUOUS
 10
11.15383
 20
55.59223
  0
VERTEX
  8
PTS2DXF
  6
CONTINUOUS
 10
11.1413
 20
55.60797
  0
VERTEX
  8
PTS2DXF
  6
CONTINUOUS
 10
11.13569
 20
55.61501
  0
VERTEX
  8
PTS2DXF
  6
CONTINUOUS
 10
11.12569
 20
55.62335
  0
VERTEX
  8
PTS2DXF
  6
CONTINUOUS
 10
11.09862
 20
55.63432
  0
VERTEX
  8
PTS2DXF
  6
CONTINUOUS
 10
11.04215
 20
55.65358
  0
VERTEX
  8
PTS2DXF
  6
CONTINUOUS
 10
11.02479
 20
55.65735
  0
VERTEX
  8
PTS2DXF
  6
CONTINUOUS
 10
10.95286
 20
55.6617
  0
VERTEX
  8
PTS2DXF
  6
CONTINUOUS
 10
10.95022
 20
55.66186
  0
VERTEX
  8
PTS2DXF
  6
CONTINUOUS
 10
10.94413
 20
55.66549
  0
VERTEX
  8
PTS2DXF
  6
CONTINUOUS
 10
10.93892
 20
55.66589
  0
VERTEX
  8
PTS2DXF
  6
CONTINUOUS
 10
10.9364
 20
55.67282
  0
VERTEX
  8
PTS2DXF
  6
CONTINUOUS
 10
10.94038
 20
55.67635
  0
VERTEX
  8
PTS2DXF
  6
CONTINUOUS
 10
10.94736
 20
55.67749
  0
VERTEX
  8
PTS2DXF
  6
CONTINUOUS
 10
10.95395
 20
55.67476
  0
VERTEX
  8
PTS2DXF
  6
CONTINUOUS
 10
10.96287
 20
55.67516
  0
VERTEX
  8
PTS2DXF
  6
CONTINUOUS
 10
10.96855
 20
55.67154
  0
VERTEX
  8
PTS2DXF
  6
CONTINUOUS
 10
10.97787
 20
55.67192
  0
VERTEX
  8
PTS2DXF
  6
CONTINUOUS
 10
10.98859
 20
55.6702
  0
VERTEX
  8
PTS2DXF
  6
CONTINUOUS
 10
11.00136
 20
55.67275
  0
VERTEX
  8
PTS2DXF
  6
CONTINUOUS
 10
11.07193
 20
55.66446
  0
VERTEX
  8
PTS2DXF
  6
CONTINUOUS
 10
11.08061
 20
55.66645
  0
VERTEX
  8
PTS2DXF
  6
CONTINUOUS
 10
11.08605
 20
55.66444
  0
VERTEX
  8
PTS2DXF
  6
CONTINUOUS
 10
11.10032
 20
55.66579
  0
VERTEX
  8
PTS2DXF
  6
CONTINUOUS
 10
11.10862
 20
55.66802
  0
VERTEX
  8
PTS2DXF
  6
CONTINUOUS
 10
11.11139
 20
55.67135
  0
VERTEX
  8
PTS2DXF
  6
CONTINUOUS
 10
11.11139
 20
55.67135
  0
VERTEX
  8
PTS2DXF
  6
CONTINUOUS
 10
11.1096
 20
55.67347
  0
VERTEX
  8
PTS2DXF
  6
CONTINUOUS
 10
11.09999
 20
55.67425
  0
VERTEX
  8
PTS2DXF
  6
CONTINUOUS
 10
11.08772
 20
55.68037
  0
VERTEX
  8
PTS2DXF
  6
CONTINUOUS
 10
11.07643
 20
55.68165
  0
VERTEX
  8
PTS2DXF
  6
CONTINUOUS
 10
11.07643
 20
55.68165
  0
VERTEX
  8
PTS2DXF
  6
CONTINUOUS
 10
11.08819
 20
55.67319
  0
VERTEX
  8
PTS2DXF
  6
CONTINUOUS
 10
11.08253
 20
55.67324
  0
VERTEX
  8
PTS2DXF
  6
CONTINUOUS
 10
11.06789
 20
55.68378
  0
VERTEX
  8
PTS2DXF
  6
CONTINUOUS
 10
11.03471
 20
55.6986
  0
VERTEX
  8
PTS2DXF
  6
CONTINUOUS
 10
11.01133
 20
55.71468
  0
VERTEX
  8
PTS2DXF
  6
CONTINUOUS
 10
11.00028
 20
55.72509
  0
VERTEX
  8
PTS2DXF
  6
CONTINUOUS
 10
10.98667
 20
55.73034
  0
VERTEX
  8
PTS2DXF
  6
CONTINUOUS
 10
10.97558
 20
55.73253
  0
VERTEX
  8
PTS2DXF
  6
CONTINUOUS
 10
10.95396
 20
55.7305
  0
VERTEX
  8
PTS2DXF
  6
CONTINUOUS
 10
10.94559
 20
55.73168
  0
VERTEX
  8
PTS2DXF
  6
CONTINUOUS
 10
10.9365
 20
55.72969
  0
VERTEX
  8
PTS2DXF
  6
CONTINUOUS
 10
10.92766
 20
55.73021
  0
VERTEX
  8
PTS2DXF
  6
CONTINUOUS
 10
10.89046
 20
55.73803
  0
VERTEX
  8
PTS2DXF
  6
CONTINUOUS
 10
10.88129
 20
55.74335
  0
VERTEX
  8
PTS2DXF
  6
CONTINUOUS
 10
10.88031
 20
55.74566
  0
VERTEX
  8
PTS2DXF
  6
CONTINUOUS
 10
10.8977
 20
55.74579
  0
VERTEX
  8
PTS2DXF
  6
CONTINUOUS
 10
10.90878
 20
55.74727
  0
VERTEX
  8
PTS2DXF
  6
CONTINUOUS
 10
10.91696
 20
55.74837
  0
VERTEX
  8
PTS2DXF
  6
CONTINUOUS
 10
10.92617
 20
55.7515
  0
VERTEX
  8
PTS2DXF
  6
CONTINUOUS
 10
10.94686
 20
55.75219
  0
VERTEX
  8
PTS2DXF
  6
CONTINUOUS
 10
10.9815
 20
55.75084
  0
VERTEX
  8
PTS2DXF
  6
CONTINUOUS
 10
11.00494
 20
55.74686
  0
VERTEX
  8
PTS2DXF
  6
CONTINUOUS
 10
11.01775
 20
55.74165
  0
VERTEX
  8
PTS2DXF
  6
CONTINUOUS
 10
11.05595
 20
55.73581
  0
VERTEX
  8
PTS2DXF
  6
CONTINUOUS
 10
11.08822
 20
55.73907
  0
VERTEX
  8
PTS2DXF
  6
CONTINUOUS
 10
11.09832
 20
55.74284
  0
VERTEX
  8
PTS2DXF
  6
CONTINUOUS
 10
11.11228
 20
55.74488
  0
VERTEX
  8
PTS2DXF
  6
CONTINUOUS
 10
11.11942
 20
55.74738
  0
VERTEX
  8
PTS2DXF
  6
CONTINUOUS
 10
11.13522
 20
55.75529
  0
VERTEX
  8
PTS2DXF
  6
CONTINUOUS
 10
11.16549
 20
55.75472
  0
VERTEX
  8
PTS2DXF
  6
CONTINUOUS
 10
11.17804
 20
55.75863
  0
VERTEX
  8
PTS2DXF
  6
CONTINUOUS
 10
11.18477
 20
55.75726
  0
VERTEX
  8
PTS2DXF
  6
CONTINUOUS
 10
11.18882
 20
55.74981
  0
VERTEX
  8
PTS2DXF
  6
CONTINUOUS
 10
11.18821
 20
55.74412
  0
VERTEX
  8
PTS2DXF
  6
CONTINUOUS
 10
11.19806
 20
55.73518
  0
VERTEX
  8
PTS2DXF
  6
CONTINUOUS
 10
11.19806
 20
55.73518
  0
VERTEX
  8
PTS2DXF
  6
CONTINUOUS
 10
11.21593
 20
55.73494
  0
VERTEX
  8
PTS2DXF
  6
CONTINUOUS
 10
11.22272
 20
55.7379
  0
VERTEX
  8
PTS2DXF
  6
CONTINUOUS
 10
11.22159
 20
55.74616
  0
VERTEX
  8
PTS2DXF
  6
CONTINUOUS
 10
11.22641
 20
55.74965
  0
VERTEX
  8
PTS2DXF
  6
CONTINUOUS
 10
11.2316
 20
55.74902
  0
VERTEX
  8
PTS2DXF
  6
CONTINUOUS
 10
11.23622
 20
55.74314
  0
VERTEX
  8
PTS2DXF
  6
CONTINUOUS
 10
11.25033
 20
55.73899
  0
VERTEX
  8
PTS2DXF
  6
CONTINUOUS
 10
11.25902
 20
55.73344
  0
VERTEX
  8
PTS2DXF
  6
CONTINUOUS
 10
11.26826
 20
55.73289
  0
VERTEX
  8
PTS2DXF
  6
CONTINUOUS
 10
11.29017
 20
55.74102
  0
VERTEX
  8
PTS2DXF
  6
CONTINUOUS
 10
11.29704
 20
55.74832
  0
VERTEX
  8
PTS2DXF
  6
CONTINUOUS
 10
11.29769
 20
55.75424
  0
VERTEX
  8
PTS2DXF
  6
CONTINUOUS
 10
11.29331
 20
55.75485
  0
VERTEX
  8
PTS2DXF
  6
CONTINUOUS
 10
11.29228
 20
55.75649
  0
VERTEX
  8
PTS2DXF
  6
CONTINUOUS
 10
11.30129
 20
55.75754
  0
VERTEX
  8
PTS2DXF
  6
CONTINUOUS
 10
11.30441
 20
55.75652
  0
VERTEX
  8
PTS2DXF
  6
CONTINUOUS
 10
11.3023
 20
55.75202
  0
VERTEX
  8
PTS2DXF
  6
CONTINUOUS
 10
11.30885
 20
55.74539
  0
VERTEX
  8
PTS2DXF
  6
CONTINUOUS
 10
11.31295
 20
55.7569
  0
VERTEX
  8
PTS2DXF
  6
CONTINUOUS
 10
11.31677
 20
55.75706
  0
VERTEX
  8
PTS2DXF
  6
CONTINUOUS
 10
11.34791
 20
55.7584
  0
VERTEX
  8
PTS2DXF
  6
CONTINUOUS
 10
11.37275
 20
55.77076
  0
VERTEX
  8
PTS2DXF
  6
CONTINUOUS
 10
11.38251
 20
55.77841
  0
VERTEX
  8
PTS2DXF
  6
CONTINUOUS
 10
11.38033
 20
55.78054
  0
VERTEX
  8
PTS2DXF
  6
CONTINUOUS
 10
11.38626
 20
55.79016
  0
VERTEX
  8
PTS2DXF
  6
CONTINUOUS
 10
11.38074
 20
55.80589
  0
VERTEX
  8
PTS2DXF
  6
CONTINUOUS
 10
11.383
 20
55.81152
  0
VERTEX
  8
PTS2DXF
  6
CONTINUOUS
 10
11.38021
 20
55.83355
  0
VERTEX
  8
PTS2DXF
  6
CONTINUOUS
 10
11.36939
 20
55.84193
  0
VERTEX
  8
PTS2DXF
  6
CONTINUOUS
 10
11.36106
 20
55.83995
  0
VERTEX
  8
PTS2DXF
  6
CONTINUOUS
 10
11.35851
 20
55.84204
  0
VERTEX
  8
PTS2DXF
  6
CONTINUOUS
 10
11.36412
 20
55.84555
  0
VERTEX
  8
PTS2DXF
  6
CONTINUOUS
 10
11.36907
 20
55.84629
  0
VERTEX
  8
PTS2DXF
  6
CONTINUOUS
 10
11.37805
 20
55.84323
  0
VERTEX
  8
PTS2DXF
  6
CONTINUOUS
 10
11.39242
 20
55.83403
  0
VERTEX
  8
PTS2DXF
  6
CONTINUOUS
 10
11.39316
 20
55.83398
  0
VERTEX
  8
PTS2DXF
  6
CONTINUOUS
 10
11.39966
 20
55.83354
  0
VERTEX
  8
PTS2DXF
  6
CONTINUOUS
 10
11.4167
 20
55.83727
  0
VERTEX
  8
PTS2DXF
  6
CONTINUOUS
 10
11.45262
 20
55.85013
  0
VERTEX
  8
PTS2DXF
  6
CONTINUOUS
 10
11.47942
 20
55.85052
  0
VERTEX
  8
PTS2DXF
  6
CONTINUOUS
 10
11.48848
 20
55.84814
  0
VERTEX
  8
PTS2DXF
  6
CONTINUOUS
 10
11.49666
 20
55.84875
  0
VERTEX
  8
PTS2DXF
  6
CONTINUOUS
 10
11.50811
 20
55.85313
  0
VERTEX
  8
PTS2DXF
  6
CONTINUOUS
 10
11.51931
 20
55.86231
  0
VERTEX
  8
PTS2DXF
  6
CONTINUOUS
 10
11.52264
 20
55.87778
  0
VERTEX
  8
PTS2DXF
  6
CONTINUOUS
 10
11.5247
 20
55.8788
  0
VERTEX
  8
PTS2DXF
  6
CONTINUOUS
 10
11.52748
 20
55.86978
  0
VERTEX
  8
PTS2DXF
  6
CONTINUOUS
 10
11.53205
 20
55.87418
  0
VERTEX
  8
PTS2DXF
  6
CONTINUOUS
 10
11.53556
 20
55.88575
  0
VERTEX
  8
PTS2DXF
  6
CONTINUOUS
 10
11.53665
 20
55.88932
  0
VERTEX
  8
PTS2DXF
  6
CONTINUOUS
 10
11.53515
 20
55.89737
  0
VERTEX
  8
PTS2DXF
  6
CONTINUOUS
 10
11.53149
 20
55.89727
  0
VERTEX
  8
PTS2DXF
  6
CONTINUOUS
 10
11.52612
 20
55.88565
  0
VERTEX
  8
PTS2DXF
  6
CONTINUOUS
 10
11.5246
 20
55.88934
  0
VERTEX
  8
PTS2DXF
  6
CONTINUOUS
 10
11.52881
 20
55.90217
  0
VERTEX
  8
PTS2DXF
  6
CONTINUOUS
 10
11.52931
 20
55.917
  0
VERTEX
  8
PTS2DXF
  6
CONTINUOUS
 10
11.52517
 20
55.92675
  0
VERTEX
  8
PTS2DXF
  6
CONTINUOUS
 10
11.52033
 20
55.93058
  0
VERTEX
  8
PTS2DXF
  6
CONTINUOUS
 10
11.51242
 20
55.93247
  0
VERTEX
  8
PTS2DXF
  6
CONTINUOUS
 10
11.49827
 20
55.94007
  0
VERTEX
  8
PTS2DXF
  6
CONTINUOUS
 10
11.48637
 20
55.94257
  0
VERTEX
  8
PTS2DXF
  6
CONTINUOUS
 10
11.46967
 20
55.94934
  0
VERTEX
  8
PTS2DXF
  6
CONTINUOUS
 10
11.43653
 20
55.94978
  0
VERTEX
  8
PTS2DXF
  6
CONTINUOUS
 10
11.4299
 20
55.94987
  0
VERTEX
  8
PTS2DXF
  6
CONTINUOUS
 10
11.38112
 20
55.95345
  0
VERTEX
  8
PTS2DXF
  6
CONTINUOUS
 10
11.36928
 20
55.95661
  0
VERTEX
  8
PTS2DXF
  6
CONTINUOUS
 10
11.36218
 20
55.96212
  0
VERTEX
  8
PTS2DXF
  6
CONTINUOUS
 10
11.34246
 20
55.96762
  0
VERTEX
  8
PTS2DXF
  6
CONTINUOUS
 10
11.31391
 20
55.97411
  0
VERTEX
  8
PTS2DXF
  6
CONTINUOUS
 10
11.3034
 20
55.9747
  0
VERTEX
  8
PTS2DXF
  6
CONTINUOUS
 10
11.29533
 20
55.97887
  0
VERTEX
  8
PTS2DXF
  6
CONTINUOUS
 10
11.28877
 20
55.99945
  0
VERTEX
  8
PTS2DXF
  6
CONTINUOUS
 10
11.31123
 20
55.98653
  0
VERTEX
  8
PTS2DXF
  6
CONTINUOUS
 10
11.35298
 20
55.97798
  0
VERTEX
  8
PTS2DXF
  6
CONTINUOUS
 10
11.38307
 20
55.96709
  0
VERTEX
  8
PTS2DXF
  6
CONTINUOUS
 10
11.41505
 20
55.96228
  0
VERTEX
  8
PTS2DXF
  6
CONTINUOUS
 10
11.44471
 20
55.96213
  0
VERTEX
  8
PTS2DXF
  6
CONTINUOUS
 10
11.47699
 20
55.95999
  0
VERTEX
  8
PTS2DXF
  6
CONTINUOUS
 10
11.48305
 20
55.95959
  0
VERTEX
  8
PTS2DXF
  6
CONTINUOUS
 10
11.51229
 20
55.95235
  0
VERTEX
  8
PTS2DXF
  6
CONTINUOUS
 10
11.52479
 20
55.95144
  0
VERTEX
  8
PTS2DXF
  6
CONTINUOUS
 10
11.53822
 20
55.95163
  0
VERTEX
  8
PTS2DXF
  6
CONTINUOUS
 10
11.55681
 20
55.95414
  0
VERTEX
  8
PTS2DXF
  6
CONTINUOUS
 10
11.58449
 20
55.96133
  0
VERTEX
  8
PTS2DXF
  6
CONTINUOUS
 10
11.59459
 20
55.96073
  0
VERTEX
  8
PTS2DXF
  6
CONTINUOUS
 10
11.61345
 20
55.94494
  0
VERTEX
  8
PTS2DXF
  6
CONTINUOUS
 10
11.63749
 20
55.93855
  0
VERTEX
  8
PTS2DXF
  6
CONTINUOUS
 10
11.65087
 20
55.93828
  0
VERTEX
  8
PTS2DXF
  6
CONTINUOUS
 10
11.67473
 20
55.94342
  0
VERTEX
  8
PTS2DXF
  6
CONTINUOUS
 10
11.68424
 20
55.94547
  0
VERTEX
  8
PTS2DXF
  6
CONTINUOUS
 10
11.70481
 20
55.94742
  0
VERTEX
  8
PTS2DXF
  6
CONTINUOUS
 10
11.7266
 20
55.95618
  0
VERTEX
  8
PTS2DXF
  6
CONTINUOUS
 10
11.75052
 20
55.96897
  0
VERTEX
  8
PTS2DXF
  6
CONTINUOUS
 10
11.76722
 20
55.97244
  0
VERTEX
  8
PTS2DXF
  6
CONTINUOUS
 10
11.77795
 20
55.97705
  0
VERTEX
  8
PTS2DXF
  6
CONTINUOUS
 10
11.78232
 20
55.9762
  0
VERTEX
  8
PTS2DXF
  6
CONTINUOUS
 10
11.79539
 20
55.95672
  0
VERTEX
  8
PTS2DXF
  6
CONTINUOUS
 10
11.79354
 20
55.94782
  0
VERTEX
  8
PTS2DXF
  6
CONTINUOUS
 10
11.79028
 20
55.94758
  0
VERTEX
  8
PTS2DXF
  6
CONTINUOUS
 10
11.78887
 20
55.95332
  0
VERTEX
  8
PTS2DXF
  6
CONTINUOUS
 10
11.78185
 20
55.95245
  0
VERTEX
  8
PTS2DXF
  6
CONTINUOUS
 10
11.76537
 20
55.94377
  0
VERTEX
  8
PTS2DXF
  6
CONTINUOUS
 10
11.75882
 20
55.94032
  0
VERTEX
  8
PTS2DXF
  6
CONTINUOUS
 10
11.7529
 20
55.92181
  0
VERTEX
  8
PTS2DXF
  6
CONTINUOUS
 10
11.75703
 20
55.91228
  0
VERTEX
  8
PTS2DXF
  6
CONTINUOUS
 10
11.75426
 20
55.90622
  0
VERTEX
  8
PTS2DXF
  6
CONTINUOUS
 10
11.74813
 20
55.90257
  0
VERTEX
  8
PTS2DXF
  6
CONTINUOUS
 10
11.7368
 20
55.89958
  0
VERTEX
  8
PTS2DXF
  6
CONTINUOUS
 10
11.72793
 20
55.90015
  0
VERTEX
  8
PTS2DXF
  6
CONTINUOUS
 10
11.71434
 20
55.90524
  0
VERTEX
  8
PTS2DXF
  6
CONTINUOUS
 10
11.70808
 20
55.91394
  0
VERTEX
  8
PTS2DXF
  6
CONTINUOUS
 10
11.69794
 20
55.9141
  0
VERTEX
  8
PTS2DXF
  6
CONTINUOUS
 10
11.69206
 20
55.91249
  0
VERTEX
  8
PTS2DXF
  6
CONTINUOUS
 10
11.68665
 20
55.91476
  0
VERTEX
  8
PTS2DXF
  6
CONTINUOUS
 10
11.67409
 20
55.915
  0
VERTEX
  8
PTS2DXF
  6
CONTINUOUS
 10
11.66995
 20
55.88729
  0
VERTEX
  8
PTS2DXF
  6
CONTINUOUS
 10
11.67132
 20
55.88573
  0
VERTEX
  8
PTS2DXF
  6
CONTINUOUS
 10
11.67496
 20
55.88161
  0
VERTEX
  8
PTS2DXF
  6
CONTINUOUS
 10
11.68761
 20
55.87885
  0
VERTEX
  8
PTS2DXF
  6
CONTINUOUS
 10
11.6969
 20
55.87506
  0
VERTEX
  8
PTS2DXF
  6
CONTINUOUS
 10
11.70991
 20
55.8652
  0
VERTEX
  8
PTS2DXF
  6
CONTINUOUS
 10
11.71549
 20
55.85767
  0
VERTEX
  8
PTS2DXF
  6
CONTINUOUS
 10
11.73212
 20
55.84423
  0
VERTEX
  8
PTS2DXF
  6
CONTINUOUS
 10
11.73999
 20
55.82885
  0
VERTEX
  8
PTS2DXF
  6
CONTINUOUS
 10
11.73676
 20
55.82234
  0
VERTEX
  8
PTS2DXF
  6
CONTINUOUS
 10
11.71933
 20
55.80885
  0
VERTEX
  8
PTS2DXF
  6
CONTINUOUS
 10
11.71364
 20
55.81203
  0
VERTEX
  8
PTS2DXF
  6
CONTINUOUS
 10
11.68894
 20
55.81892
  0
VERTEX
  8
PTS2DXF
  6
CONTINUOUS
 10
11.67775
 20
55.82026
  0
VERTEX
  8
PTS2DXF
  6
CONTINUOUS
 10
11.67221
 20
55.81796
  0
VERTEX
  8
PTS2DXF
  6
CONTINUOUS
 10
11.66112
 20
55.81336
  0
VERTEX
  8
PTS2DXF
  6
CONTINUOUS
 10
11.65681
 20
55.80781
  0
VERTEX
  8
PTS2DXF
  6
CONTINUOUS
 10
11.6439
 20
55.79459
  0
VERTEX
  8
PTS2DXF
  6
CONTINUOUS
 10
11.63213
 20
55.79092
  0
VERTEX
  8
PTS2DXF
  6
CONTINUOUS
 10
11.61691
 20
55.78898
  0
VERTEX
  8
PTS2DXF
  6
CONTINUOUS
 10
11.61304
 20
55.78364
  0
VERTEX
  8
PTS2DXF
  6
CONTINUOUS
 10
11.63596
 20
55.77546
  0
VERTEX
  8
PTS2DXF
  6
CONTINUOUS
 10
11.66777
 20
55.77745
  0
VERTEX
  8
PTS2DXF
  6
CONTINUOUS
 10
11.68794
 20
55.78697
  0
VERTEX
  8
PTS2DXF
  6
CONTINUOUS
 10
11.69858
 20
55.78793
  0
VERTEX
  8
PTS2DXF
  6
CONTINUOUS
 10
11.70822
 20
55.79396
  0
VERTEX
  8
PTS2DXF
  6
CONTINUOUS
 10
11.71577
 20
55.79276
  0
VERTEX
  8
PTS2DXF
  6
CONTINUOUS
 10
11.72445
 20
55.79425
  0
VERTEX
  8
PTS2DXF
  6
CONTINUOUS
 10
11.73135
 20
55.79764
  0
VERTEX
  8
PTS2DXF
  6
CONTINUOUS
 10
11.74027
 20
55.79775
  0
VERTEX
  8
PTS2DXF
  6
CONTINUOUS
 10
11.74987
 20
55.79007
  0
VERTEX
  8
PTS2DXF
  6
CONTINUOUS
 10
11.75276
 20
55.77716
  0
VERTEX
  8
PTS2DXF
  6
CONTINUOUS
 10
11.76492
 20
55.76731
  0
VERTEX
  8
PTS2DXF
  6
CONTINUOUS
 10
11.76053
 20
55.76451
  0
VERTEX
  8
PTS2DXF
  6
CONTINUOUS
 10
11.75584
 20
55.76584
  0
VERTEX
  8
PTS2DXF
  6
CONTINUOUS
 10
11.754
 20
55.77071
  0
VERTEX
  8
PTS2DXF
  6
CONTINUOUS
 10
11.75034
 20
55.77062
  0
VERTEX
  8
PTS2DXF
  6
CONTINUOUS
 10
11.74458
 20
55.7665
  0
VERTEX
  8
PTS2DXF
  6
CONTINUOUS
 10
11.7481
 20
55.76174
  0
VERTEX
  8
PTS2DXF
  6
CONTINUOUS
 10
11.7491
 20
55.76039
  0
VERTEX
  8
PTS2DXF
  6
CONTINUOUS
 10
11.75836
 20
55.7566
  0
VERTEX
  8
PTS2DXF
  6
CONTINUOUS
 10
11.77376
 20
55.75349
  0
VERTEX
  8
PTS2DXF
  6
CONTINUOUS
 10
11.77382
 20
55.74731
  0
VERTEX
  8
PTS2DXF
  6
CONTINUOUS
 10
11.7678
 20
55.74778
  0
VERTEX
  8
PTS2DXF
  6
CONTINUOUS
 10
11.75242
 20
55.74106
  0
VERTEX
  8
PTS2DXF
  6
CONTINUOUS
 10
11.7375
 20
55.74141
  0
VERTEX
  8
PTS2DXF
  6
CONTINUOUS
 10
11.72573
 20
55.73775
  0
VERTEX
  8
PTS2DXF
  6
CONTINUOUS
 10
11.69049
 20
55.73728
  0
VERTEX
  8
PTS2DXF
  6
CONTINUOUS
 10
11.67932
 20
55.73519
  0
VERTEX
  8
PTS2DXF
  6
CONTINUOUS
 10
11.6619
 20
55.73494
  0
VERTEX
  8
PTS2DXF
  6
CONTINUOUS
 10
11.65752
 20
55.73214
  0
VERTEX
  8
PTS2DXF
  6
CONTINUOUS
 10
11.66307
 20
55.72781
  0
VERTEX
  8
PTS2DXF
  6
CONTINUOUS
 10
11.65625
 20
55.72487
  0
VERTEX
  8
PTS2DXF
  6
CONTINUOUS
 10
11.65832
 20
55.72182
  0
VERTEX
  8
PTS2DXF
  6
CONTINUOUS
 10
11.66556
 20
55.72155
  0
VERTEX
  8
PTS2DXF
  6
CONTINUOUS
 10
11.66915
 20
55.71775
  0
VERTEX
  8
PTS2DXF
  6
CONTINUOUS
 10
11.68575
 20
55.72015
  0
VERTEX
  8
PTS2DXF
  6
CONTINUOUS
 10
11.70289
 20
55.72263
  0
VERTEX
  8
PTS2DXF
  6
CONTINUOUS
 10
11.72274
 20
55.72301
  0
VERTEX
  8
PTS2DXF
  6
CONTINUOUS
 10
11.73258
 20
55.7208
  0
VERTEX
  8
PTS2DXF
  6
CONTINUOUS
 10
11.75535
 20
55.72517
  0
VERTEX
  8
PTS2DXF
  6
CONTINUOUS
 10
11.76879
 20
55.7226
  0
VERTEX
  8
PTS2DXF
  6
CONTINUOUS
 10
11.77676
 20
55.72503
  0
VERTEX
  8
PTS2DXF
  6
CONTINUOUS
 10
11.77635
 20
55.72824
  0
VERTEX
  8
PTS2DXF
  6
CONTINUOUS
 10
11.76796
 20
55.73246
  0
VERTEX
  8
PTS2DXF
  6
CONTINUOUS
 10
11.7706
 20
55.73418
  0
VERTEX
  8
PTS2DXF
  6
CONTINUOUS
 10
11.77615
 20
55.73328
  0
VERTEX
  8
PTS2DXF
  6
CONTINUOUS
 10
11.78809
 20
55.72504
  0
VERTEX
  8
PTS2DXF
  6
CONTINUOUS
 10
11.79855
 20
55.71138
  0
VERTEX
  8
PTS2DXF
  6
CONTINUOUS
 10
11.79626
 20
55.70255
  0
VERTEX
  8
PTS2DXF
  6
CONTINUOUS
 10
11.79989
 20
55.69921
  0
VERTEX
  8
PTS2DXF
  6
CONTINUOUS
 10
11.80718
 20
55.69938
  0
VERTEX
  8
PTS2DXF
  6
CONTINUOUS
 10
11.80983
 20
55.6979
  0
VERTEX
  8
PTS2DXF
  6
CONTINUOUS
 10
11.81229
 20
55.69164
  0
VERTEX
  8
PTS2DXF
  6
CONTINUOUS
 10
11.81732
 20
55.68711
  0
VERTEX
  8
PTS2DXF
  6
CONTINUOUS
 10
11.81921
 20
55.68542
  0
VERTEX
  8
PTS2DXF
  6
CONTINUOUS
 10
11.81278
 20
55.67453
  0
VERTEX
  8
PTS2DXF
  6
CONTINUOUS
 10
11.80943
 20
55.67483
  0
VERTEX
  8
PTS2DXF
  6
CONTINUOUS
 10
11.80797
 20
55.67946
  0
VERTEX
  8
PTS2DXF
  6
CONTINUOUS
 10
11.79964
 20
55.6807
  0
VERTEX
  8
PTS2DXF
  6
CONTINUOUS
 10
11.79665
 20
55.68265
  0
VERTEX
  8
PTS2DXF
  6
CONTINUOUS
 10
11.79556
 20
55.67698
  0
VERTEX
  8
PTS2DXF
  6
CONTINUOUS
 10
11.79189
 20
55.67346
  0
VERTEX
  8
PTS2DXF
  6
CONTINUOUS
 10
11.78226
 20
55.67064
  0
VERTEX
  8
PTS2DXF
  6
CONTINUOUS
 10
11.77527
 20
55.66291
  0
VERTEX
  8
PTS2DXF
  6
CONTINUOUS
 10
11.78064
 20
55.66064
  0
VERTEX
  8
PTS2DXF
  6
CONTINUOUS
 10
11.78878
 20
55.6608
  0
VERTEX
  8
PTS2DXF
  6
CONTINUOUS
 10
11.80309
 20
55.66594
  0
VERTEX
  8
PTS2DXF
  6
CONTINUOUS
 10
11.80838
 20
55.66298
  0
VERTEX
  8
PTS2DXF
  6
CONTINUOUS
 10
11.81502
 20
55.66775
  0
VERTEX
  8
PTS2DXF
  6
CONTINUOUS
 10
11.8223
 20
55.68095
  0
VERTEX
  8
PTS2DXF
  6
CONTINUOUS
 10
11.83044
 20
55.68475
  0
VERTEX
  8
PTS2DXF
  6
CONTINUOUS
 10
11.83189
 20
55.68995
  0
VERTEX
  8
PTS2DXF
  6
CONTINUOUS
 10
11.83598
 20
55.69367
  0
VERTEX
  8
PTS2DXF
  6
CONTINUOUS
 10
11.8369
 20
55.68455
  0
VERTEX
  8
PTS2DXF
  6
CONTINUOUS
 10
11.84191
 20
55.69025
  0
VERTEX
  8
PTS2DXF
  6
CONTINUOUS
 10
11.84345
 20
55.69201
  0
VERTEX
  8
PTS2DXF
  6
CONTINUOUS
 10
11.84119
 20
55.69987
  0
VERTEX
  8
PTS2DXF
  6
CONTINUOUS
 10
11.84432
 20
55.70889
  0
VERTEX
  8
PTS2DXF
  6
CONTINUOUS
 10
11.86348
 20
55.73304
  0
VERTEX
  8
PTS2DXF
  6
CONTINUOUS
 10
11.87799
 20
55.7359
  0
VERTEX
  8
PTS2DXF
  6
CONTINUOUS
 10
11.88003
 20
55.73924
  0
VERTEX
  8
PTS2DXF
  6
CONTINUOUS
 10
11.86172
 20
55.73837
  0
VERTEX
  8
PTS2DXF
  6
CONTINUOUS
 10
11.85909
 20
55.74327
  0
VERTEX
  8
PTS2DXF
  6
CONTINUOUS
 10
11.86092
 20
55.74823
  0
VERTEX
  8
PTS2DXF
  6
CONTINUOUS
 10
11.85915
 20
55.75356
  0
VERTEX
  8
PTS2DXF
  6
CONTINUOUS
 10
11.85357
 20
55.75424
  0
VERTEX
  8
PTS2DXF
  6
CONTINUOUS
 10
11.85097
 20
55.75617
  0
VERTEX
  8
PTS2DXF
  6
CONTINUOUS
 10
11.857
 20
55.75913
  0
VERTEX
  8
PTS2DXF
  6
CONTINUOUS
 10
11.86102
 20
55.76537
  0
VERTEX
  8
PTS2DXF
  6
CONTINUOUS
 10
11.86695
 20
55.78991
  0
VERTEX
  8
PTS2DXF
  6
CONTINUOUS
 10
11.86934
 20
55.79979
  0
VERTEX
  8
PTS2DXF
  6
CONTINUOUS
 10
11.88062
 20
55.80254
  0
VERTEX
  8
PTS2DXF
  6
CONTINUOUS
 10
11.88487
 20
55.8074
  0
VERTEX
  8
PTS2DXF
  6
CONTINUOUS
 10
11.88025
 20
55.81261
  0
VERTEX
  8
PTS2DXF
  6
CONTINUOUS
 10
11.88299
 20
55.81501
  0
VERTEX
  8
PTS2DXF
  6
CONTINUOUS
 10
11.8924
 20
55.81578
  0
VERTEX
  8
PTS2DXF
  6
CONTINUOUS
 10
11.91466
 20
55.82198
  0
VERTEX
  8
PTS2DXF
  6
CONTINUOUS
 10
11.92365
 20
55.81933
  0
VERTEX
  8
PTS2DXF
  6
CONTINUOUS
 10
11.93621
 20
55.81929
  0
VERTEX
  8
PTS2DXF
  6
CONTINUOUS
 10
11.9403
 20
55.82278
  0
VERTEX
  8
PTS2DXF
  6
CONTINUOUS
 10
11.94877
 20
55.82564
  0
VERTEX
  8
PTS2DXF
  6
CONTINUOUS
 10
11.96355
 20
55.8495
  0
VERTEX
  8
PTS2DXF
  6
CONTINUOUS
 10
11.9632
 20
55.85637
  0
VERTEX
  8
PTS2DXF
  6
CONTINUOUS
 10
11.95444
 20
55.86724
  0
VERTEX
  8
PTS2DXF
  6
CONTINUOUS
 10
11.94962
 20
55.87086
  0
VERTEX
  8
PTS2DXF
  6
CONTINUOUS
 10
11.94355
 20
55.87267
  0
VERTEX
  8
PTS2DXF
  6
CONTINUOUS
 10
11.93984
 20
55.87377
  0
VERTEX
  8
PTS2DXF
  6
CONTINUOUS
 10
11.93485
 20
55.87923
  0
VERTEX
  8
PTS2DXF
  6
CONTINUOUS
 10
11.93322
 20
55.88889
  0
VERTEX
  8
PTS2DXF
  6
CONTINUOUS
 10
11.92386
 20
55.90161
  0
VERTEX
  8
PTS2DXF
  6
CONTINUOUS
 10
11.90419
 20
55.92076
  0
VERTEX
  8
PTS2DXF
  6
CONTINUOUS
 10
11.91094
 20
55.93458
  0
VERTEX
  8
PTS2DXF
  6
CONTINUOUS
 10
11.91354
 20
55.93584
  0
VERTEX
  8
PTS2DXF
  6
CONTINUOUS
 10
11.94059
 20
55.93431
  0
VERTEX
  8
PTS2DXF
  6
CONTINUOUS
 10
11.96762
 20
55.92956
  0
VERTEX
  8
PTS2DXF
  6
CONTINUOUS
 10
11.97571
 20
55.92604
  0
VERTEX
  8
PTS2DXF
  6
CONTINUOUS
 10
11.98804
 20
55.91434
  0
VERTEX
  8
PTS2DXF
  6
CONTINUOUS
 10
11.99582
 20
55.91347
  0
VERTEX
  8
PTS2DXF
  6
CONTINUOUS
 10
11.99765
 20
55.91327
  0
VERTEX
  8
PTS2DXF
  6
CONTINUOUS
 10
12.00848
 20
55.91534
  0
VERTEX
  8
PTS2DXF
  6
CONTINUOUS
 10
12.01327
 20
55.91149
  0
VERTEX
  8
PTS2DXF
  6
CONTINUOUS
 10
12.01852
 20
55.91127
  0
VERTEX
  8
PTS2DXF
  6
CONTINUOUS
 10
12.02943
 20
55.90763
  0
VERTEX
  8
PTS2DXF
  6
CONTINUOUS
 10
12.0319
 20
55.90158
  0
VERTEX
  8
PTS2DXF
  6
CONTINUOUS
 10
12.0133
 20
55.88954
  0
VERTEX
  8
PTS2DXF
  6
CONTINUOUS
 10
12.0111
 20
55.88506
  0
VERTEX
  8
PTS2DXF
  6
CONTINUOUS
 10
12.00547
 20
55.88232
  0
VERTEX
  8
PTS2DXF
  6
CONTINUOUS
 10
12.00725
 20
55.87402
  0
VERTEX
  8
PTS2DXF
  6
CONTINUOUS
 10
12.00396
 20
55.86729
  0
VERTEX
  8
PTS2DXF
  6
CONTINUOUS
 10
12.00467
 20
55.86338
  0
VERTEX
  8
PTS2DXF
  6
CONTINUOUS
 10
12.00989
 20
55.85974
  0
VERTEX
  8
PTS2DXF
  6
CONTINUOUS
 10
12.03243
 20
55.85516
  0
VERTEX
  8
PTS2DXF
  6
CONTINUOUS
 10
12.03583
 20
55.8532
  0
VERTEX
  8
PTS2DXF
  6
CONTINUOUS
 10
12.04266
 20
55.84011
  0
VERTEX
  8
PTS2DXF
  6
CONTINUOUS
 10
12.04263
 20
55.82187
  0
VERTEX
  8
PTS2DXF
  6
CONTINUOUS
 10
12.04263
 20
55.82091
  0
VERTEX
  8
PTS2DXF
  6
CONTINUOUS
 10
12.04657
 20
55.81686
  0
VERTEX
  8
PTS2DXF
  6
CONTINUOUS
 10
12.0567
 20
55.81371
  0
VERTEX
  8
PTS2DXF
  6
CONTINUOUS
 10
12.05514
 20
55.81103
  0
VERTEX
  8
PTS2DXF
  6
CONTINUOUS
 10
12.04888
 20
55.80968
  0
VERTEX
  8
PTS2DXF
  6
CONTINUOUS
 10
12.04482
 20
55.80642
  0
VERTEX
  8
PTS2DXF
  6
CONTINUOUS
 10
12.04518
 20
55.80298
  0
VERTEX
  8
PTS2DXF
  6
CONTINUOUS
 10
12.04906
 20
55.79847
  0
VERTEX
  8
PTS2DXF
  6
CONTINUOUS
 10
12.05549
 20
55.80118
  0
VERTEX
  8
PTS2DXF
  6
CONTINUOUS
 10
12.06213
 20
55.79931
  0
VERTEX
  8
PTS2DXF
  6
CONTINUOUS
 10
12.06305
 20
55.79699
  0
VERTEX
  8
PTS2DXF
  6
CONTINUOUS
 10
12.05811
 20
55.7869
  0
VERTEX
  8
PTS2DXF
  6
CONTINUOUS
 10
12.06983
 20
55.7679
  0
VERTEX
  8
PTS2DXF
  6
CONTINUOUS
 10
12.06812
 20
55.76408
  0
VERTEX
  8
PTS2DXF
  6
CONTINUOUS
 10
12.0606
 20
55.75914
  0
VERTEX
  8
PTS2DXF
  6
CONTINUOUS
 10
12.06272
 20
55.75676
  0
VERTEX
  8
PTS2DXF
  6
CONTINUOUS
 10
12.06629
 20
55.75616
  0
VERTEX
  8
PTS2DXF
  6
CONTINUOUS
 10
12.069
 20
55.73638
  0
VERTEX
  8
PTS2DXF
  6
CONTINUOUS
 10
12.06637
 20
55.73169
  0
VERTEX
  8
PTS2DXF
  6
CONTINUOUS
 10
12.06066
 20
55.73444
  0
VERTEX
  8
PTS2DXF
  6
CONTINUOUS
 10
12.05499
 20
55.73444
  0
VERTEX
  8
PTS2DXF
  6
CONTINUOUS
 10
12.04815
 20
55.73153
  0
VERTEX
  8
PTS2DXF
  6
CONTINUOUS
 10
12.04764
 20
55.73155
  0
VERTEX
  8
PTS2DXF
  6
CONTINUOUS
 10
12.0409
 20
55.73182
  0
VERTEX
  8
PTS2DXF
  6
CONTINUOUS
 10
12.03765
 20
55.72853
  0
VERTEX
  8
PTS2DXF
  6
CONTINUOUS
 10
12.03374
 20
55.7296
  0
VERTEX
  8
PTS2DXF
  6
CONTINUOUS
 10
12.01953
 20
55.71967
  0
VERTEX
  8
PTS2DXF
  6
CONTINUOUS
 10
12.01379
 20
55.72539
  0
VERTEX
  8
PTS2DXF
  6
CONTINUOUS
 10
12.01282
 20
55.73366
  0
VERTEX
  8
PTS2DXF
  6
CONTINUOUS
 10
12.01024
 20
55.7356
  0
VERTEX
  8
PTS2DXF
  6
CONTINUOUS
 10
12.00247
 20
55.735
  0
VERTEX
  8
PTS2DXF
  6
CONTINUOUS
 10
11.99428
 20
55.74059
  0
VERTEX
  8
PTS2DXF
  6
CONTINUOUS
 10
11.98741
 20
55.73104
  0
VERTEX
  8
PTS2DXF
  6
CONTINUOUS
 10
11.98553
 20
55.71946
  0
VERTEX
  8
PTS2DXF
  6
CONTINUOUS
 10
11.97142
 20
55.7006
  0
VERTEX
  8
PTS2DXF
  6
CONTINUOUS
 10
11.95057
 20
55.68269
  0
VERTEX
  8
PTS2DXF
  6
CONTINUOUS
 10
11.94563
 20
55.67338
  0
VERTEX
  8
PTS2DXF
  6
CONTINUOUS
 10
11.94475
 20
55.67173
  0
VERTEX
  8
PTS2DXF
  6
CONTINUOUS
 10
11.938
 20
55.66628
  0
VERTEX
  8
PTS2DXF
  6
CONTINUOUS
 10
11.93391
 20
55.65936
  0
VERTEX
  8
PTS2DXF
  6
CONTINUOUS
 10
11.93489
 20
55.65429
  0
VERTEX
  8
PTS2DXF
  6
CONTINUOUS
 10
11.94088
 20
55.65062
  0
VERTEX
  8
PTS2DXF
  6
CONTINUOUS
 10
11.94814
 20
55.66336
  0
VERTEX
  8
PTS2DXF
  6
CONTINUOUS
 10
11.95738
 20
55.66618
  0
VERTEX
  8
PTS2DXF
  6
CONTINUOUS
 10
11.95597
 20
55.67424
  0
VERTEX
  8
PTS2DXF
  6
CONTINUOUS
 10
11.95921
 20
55.67754
  0
VERTEX
  8
PTS2DXF
  6
CONTINUOUS
 10
11.99785
 20
55.67963
  0
VERTEX
  8
PTS2DXF
  6
CONTINUOUS
 10
12.00139
 20
55.682
  0
VERTEX
  8
PTS2DXF
  6
CONTINUOUS
 10
11.99847
 20
55.69081
  0
VERTEX
  8
PTS2DXF
  6
CONTINUOUS
 10
11.98756
 20
55.694
  0
VERTEX
  8
PTS2DXF
  6
CONTINUOUS
 10
11.98618
 20
55.69588
  0
VERTEX
  8
PTS2DXF
  6
CONTINUOUS
 10
11.9973
 20
55.70069
  0
VERTEX
  8
PTS2DXF
  6
CONTINUOUS
 10
11.99808
 20
55.70683
  0
VERTEX
  8
PTS2DXF
  6
CONTINUOUS
 10
12.00351
 20
55.70501
  0
VERTEX
  8
PTS2DXF
  6
CONTINUOUS
 10
12.01101
 20
55.70676
  0
VERTEX
  8
PTS2DXF
  6
CONTINUOUS
 10
12.01184
 20
55.70375
  0
VERTEX
  8
PTS2DXF
  6
CONTINUOUS
 10
12.00672
 20
55.69847
  0
VERTEX
  8
PTS2DXF
  6
CONTINUOUS
 10
12.00841
 20
55.69589
  0
VERTEX
  8
PTS2DXF
  6
CONTINUOUS
 10
12.01203
 20
55.69574
  0
VERTEX
  8
PTS2DXF
  6
CONTINUOUS
 10
12.01852
 20
55.69913
  0
VERTEX
  8
PTS2DXF
  6
CONTINUOUS
 10
12.02418
 20
55.69593
  0
VERTEX
  8
PTS2DXF
  6
CONTINUOUS
 10
12.04118
 20
55.69615
  0
VERTEX
  8
PTS2DXF
  6
CONTINUOUS
 10
12.04571
 20
55.69367
  0
VERTEX
  8
PTS2DXF
  6
CONTINUOUS
 10
12.04604
 20
55.6868
  0
VERTEX
  8
PTS2DXF
  6
CONTINUOUS
 10
12.05462
 20
55.68711
  0
VERTEX
  8
PTS2DXF
  6
CONTINUOUS
 10
12.05838
 20
55.68217
  0
VERTEX
  8
PTS2DXF
  6
CONTINUOUS
 10
12.05657
 20
55.68065
  0
VERTEX
  8
PTS2DXF
  6
CONTINUOUS
 10
12.04285
 20
55.68396
  0
VERTEX
  8
PTS2DXF
  6
CONTINUOUS
 10
12.03535
 20
55.68221
  0
VERTEX
  8
PTS2DXF
  6
CONTINUOUS
 10
12.02864
 20
55.6834
  0
VERTEX
  8
PTS2DXF
  6
CONTINUOUS
 10
12.01527
 20
55.68943
  0
VERTEX
  8
PTS2DXF
  6
CONTINUOUS
 10
12.00823
 20
55.69132
  0
VERTEX
  8
PTS2DXF
  6
CONTINUOUS
 10
12.00533
 20
55.69075
  0
VERTEX
  8
PTS2DXF
  6
CONTINUOUS
 10
12.00507
 20
55.68871
  0
VERTEX
  8
PTS2DXF
  6
CONTINUOUS
 10
12.01213
 20
55.68705
  0
VERTEX
  8
PTS2DXF
  6
CONTINUOUS
 10
12.01651
 20
55.67704
  0
VERTEX
  8
PTS2DXF
  6
CONTINUOUS
 10
12.01487
 20
55.67048
  0
VERTEX
  8
PTS2DXF
  6
CONTINUOUS
 10
12.0188
 20
55.66963
  0
VERTEX
  8
PTS2DXF
  6
CONTINUOUS
 10
12.02495
 20
55.67349
  0
VERTEX
  8
PTS2DXF
  6
CONTINUOUS
 10
12.0328
 20
55.66859
  0
VERTEX
  8
PTS2DXF
  6
CONTINUOUS
 10
12.03941
 20
55.6729
  0
VERTEX
  8
PTS2DXF
  6
CONTINUOUS
 10
12.04762
 20
55.67073
  0
VERTEX
  8
PTS2DXF
  6
CONTINUOUS
 10
12.05231
 20
55.6758
  0
VERTEX
  8
PTS2DXF
  6
CONTINUOUS
 10
12.06077
 20
55.67567
  0
VERTEX
  8
PTS2DXF
  6
CONTINUOUS
 10
12.06601
 20
55.66928
  0
VERTEX
  8
PTS2DXF
  6
CONTINUOUS
 10
12.06018
 20
55.66473
  0
VERTEX
  8
PTS2DXF
  6
CONTINUOUS
 10
12.06091
 20
55.66103
  0
VERTEX
  8
PTS2DXF
  6
CONTINUOUS
 10
12.06421
 20
55.65839
  0
VERTEX
  8
PTS2DXF
  6
CONTINUOUS
 10
12.07376
 20
55.6573
  0
VERTEX
  8
PTS2DXF
  6
CONTINUOUS
 10
12.07516
 20
55.65633
  0
VERTEX
  8
PTS2DXF
  6
CONTINUOUS
 10
12.08043
 20
55.65268
  0
VERTEX
  8
PTS2DXF
  6
CONTINUOUS
 10
12.08448
 20
55.65274
  0
VERTEX
  8
PTS2DXF
  6
CONTINUOUS
 10
12.08804
 20
55.65534
  0
VERTEX
  8
PTS2DXF
  6
CONTINUOUS
 10
12.09437
 20
55.66994
  0
VERTEX
  8
PTS2DXF
  6
CONTINUOUS
 10
12.09154
 20
55.67303
  0
VERTEX
  8
PTS2DXF
  6
CONTINUOUS
 10
12.08583
 20
55.67258
  0
VERTEX
  8
PTS2DXF
  6
CONTINUOUS
 10
12.07634
 20
55.67732
  0
VERTEX
  8
PTS2DXF
  6
CONTINUOUS
 10
12.07511
 20
55.68034
  0
VERTEX
  8
PTS2DXF
  6
CONTINUOUS
 10
12.08059
 20
55.68835
  0
VERTEX
  8
PTS2DXF
  6
CONTINUOUS
 10
12.08404
 20
55.69003
  0
VERTEX
  8
PTS2DXF
  6
CONTINUOUS
 10
12.09223
 20
55.69084
  0
VERTEX
  8
PTS2DXF
  6
CONTINUOUS
 10
12.09336
 20
55.68713
  0
VERTEX
  8
PTS2DXF
  6
CONTINUOUS
 10
12.09695
 20
55.68675
  0
VERTEX
  8
PTS2DXF
  6
CONTINUOUS
 10
12.09941
 20
55.69328
  0
VERTEX
  8
PTS2DXF
  6
CONTINUOUS
 10
12.09718
 20
55.69474
  0
VERTEX
  8
PTS2DXF
  6
CONTINUOUS
 10
12.08871
 20
55.69487
  0
VERTEX
  8
PTS2DXF
  6
CONTINUOUS
 10
12.08943
 20
55.69735
  0
VERTEX
  8
PTS2DXF
  6
CONTINUOUS
 10
12.09694
 20
55.6991
  0
VERTEX
  8
PTS2DXF
  6
CONTINUOUS
 10
12.10449
 20
55.6981
  0
VERTEX
  8
PTS2DXF
  6
CONTINUOUS
 10
12.10777
 20
55.70162
  0
VERTEX
  8
PTS2DXF
  6
CONTINUOUS
 10
12.10114
 20
55.70352
  0
VERTEX
  8
PTS2DXF
  6
CONTINUOUS
 10
12.1139
 20
55.70525
  0
VERTEX
  8
PTS2DXF
  6
CONTINUOUS
 10
12.11683
 20
55.71222
  0
VERTEX
  8
PTS2DXF
  6
CONTINUOUS
 10
12.10818
 20
55.71098
  0
VERTEX
  8
PTS2DXF
  6
CONTINUOUS
 10
12.10647
 20
55.71654
  0
VERTEX
  8
PTS2DXF
  6
CONTINUOUS
 10
12.10774
 20
55.71949
  0
VERTEX
  8
PTS2DXF
  6
CONTINUOUS
 10
12.10879
 20
55.72193
  0
VERTEX
  8
PTS2DXF
  6
CONTINUOUS
 10
12.11271
 20
55.72405
  0
VERTEX
  8
PTS2DXF
  6
CONTINUOUS
 10
12.12313
 20
55.72956
  0
VERTEX
  8
PTS2DXF
  6
CONTINUOUS
 10
12.12142
 20
55.73192
  0
VERTEX
  8
PTS2DXF
  6
CONTINUOUS
 10
12.1121
 20
55.73185
  0
VERTEX
  8
PTS2DXF
  6
CONTINUOUS
 10
12.10209
 20
55.74507
  0
VERTEX
  8
PTS2DXF
  6
CONTINUOUS
 10
12.10561
 20
55.75659
  0
VERTEX
  8
PTS2DXF
  6
CONTINUOUS
 10
12.10114
 20
55.76272
  0
VERTEX
  8
PTS2DXF
  6
CONTINUOUS
 10
12.09129
 20
55.76793
  0
VERTEX
  8
PTS2DXF
  6
CONTINUOUS
 10
12.0926
 20
55.78113
  0
VERTEX
  8
PTS2DXF
  6
CONTINUOUS
 10
12.09289
 20
55.78341
  0
VERTEX
  8
PTS2DXF
  6
CONTINUOUS
 10
12.08956
 20
55.78583
  0
VERTEX
  8
PTS2DXF
  6
CONTINUOUS
 10
12.08016
 20
55.78828
  0
VERTEX
  8
PTS2DXF
  6
CONTINUOUS
 10
12.07778
 20
55.79181
  0
VERTEX
  8
PTS2DXF
  6
CONTINUOUS
 10
12.08399
 20
55.79909
  0
VERTEX
  8
PTS2DXF
  6
CONTINUOUS
 10
12.07377
 20
55.81094
  0
VERTEX
  8
PTS2DXF
  6
CONTINUOUS
 10
12.06828
 20
55.82809
  0
VERTEX
  8
PTS2DXF
  6
CONTINUOUS
 10
12.0617
 20
55.83362
  0
VERTEX
  8
PTS2DXF
  6
CONTINUOUS
 10
12.05763
 20
55.84293
  0
VERTEX
  8
PTS2DXF
  6
CONTINUOUS
 10
12.0515
 20
55.8457
  0
VERTEX
  8
PTS2DXF
  6
CONTINUOUS
 10
12.04981
 20
55.85148
  0
VERTEX
  8
PTS2DXF
  6
CONTINUOUS
 10
12.05384
 20
55.86069
  0
VERTEX
  8
PTS2DXF
  6
CONTINUOUS
 10
12.0585
 20
55.85912
  0
VERTEX
  8
PTS2DXF
  6
CONTINUOUS
 10
12.06895
 20
55.86143
  0
VERTEX
  8
PTS2DXF
  6
CONTINUOUS
 10
12.07187
 20
55.87777
  0
VERTEX
  8
PTS2DXF
  6
CONTINUOUS
 10
12.06986
 20
55.88106
  0
VERTEX
  8
PTS2DXF
  6
CONTINUOUS
 10
12.06229
 20
55.88525
  0
VERTEX
  8
PTS2DXF
  6
CONTINUOUS
 10
12.05248
 20
55.90052
  0
VERTEX
  8
PTS2DXF
  6
CONTINUOUS
 10
12.0514
 20
55.92044
  0
VERTEX
  8
PTS2DXF
  6
CONTINUOUS
 10
12.04524
 20
55.92938
  0
VERTEX
  8
PTS2DXF
  6
CONTINUOUS
 10
12.03704
 20
55.9352
  0
VERTEX
  8
PTS2DXF
  6
CONTINUOUS
 10
12.02724
 20
55.94749
  0
VERTEX
  8
PTS2DXF
  6
CONTINUOUS
 10
12.0233
 20
55.95794
  0
VERTEX
  8
PTS2DXF
  6
CONTINUOUS
 10
12.01758
 20
55.96091
  0
VERTEX
  8
PTS2DXF
  6
CONTINUOUS
 10
12.01562
 20
55.96785
  0
VERTEX
  8
PTS2DXF
  6
CONTINUOUS
 10
12.01094
 20
55.96941
  0
VERTEX
  8
PTS2DXF
  6
CONTINUOUS
 10
11.99729
 20
55.96447
  0
VERTEX
  8
PTS2DXF
  6
CONTINUOUS
 10
11.97832
 20
55.9657
  0
VERTEX
  8
PTS2DXF
  6
CONTINUOUS
 10
11.96242
 20
55.95903
  0
VERTEX
  8
PTS2DXF
  6
CONTINUOUS
 10
11.95747
 20
55.95794
  0
VERTEX
  8
PTS2DXF
  6
CONTINUOUS
 10
11.95364
 20
55.95709
  0
VERTEX
  8
PTS2DXF
  6
CONTINUOUS
 10
11.9415
 20
55.95118
  0
VERTEX
  8
PTS2DXF
  6
CONTINUOUS
 10
11.92127
 20
55.94879
  0
VERTEX
  8
PTS2DXF
  6
CONTINUOUS
 10
11.89926
 20
55.9419
  0
VERTEX
  8
PTS2DXF
  6
CONTINUOUS
 10
11.88906
 20
55.94162
  0
VERTEX
  8
PTS2DXF
  6
CONTINUOUS
 10
11.86008
 20
55.9439
  0
VERTEX
  8
PTS2DXF
  6
CONTINUOUS
 10
11.85553
 20
55.9466
  0
VERTEX
  8
PTS2DXF
  6
CONTINUOUS
 10
11.85424
 20
55.95579
  0
VERTEX
  8
PTS2DXF
  6
CONTINUOUS
 10
11.84993
 20
55.9571
  0
VERTEX
  8
PTS2DXF
  6
CONTINUOUS
 10
11.84768
 20
55.96519
  0
VERTEX
  8
PTS2DXF
  6
CONTINUOUS
 10
11.85552
 20
55.97585
  0
VERTEX
  8
PTS2DXF
  6
CONTINUOUS
 10
11.88968
 20
55.98547
  0
VERTEX
  8
PTS2DXF
  6
CONTINUOUS
 10
11.90306
 20
55.99086
  0
VERTEX
  8
PTS2DXF
  6
CONTINUOUS
 10
11.92612
 20
56.00008
  0
VERTEX
  8
PTS2DXF
  6
CONTINUOUS
 10
11.95371
 20
56.00286
  0
VERTEX
  8
PTS2DXF
  6
CONTINUOUS
 10
11.98408
 20
56.01405
  0
VERTEX
  8
PTS2DXF
  6
CONTINUOUS
 10
11.99895
 20
56.0233
  0
VERTEX
  8
PTS2DXF
  6
CONTINUOUS
 10
12.01566
 20
56.02408
  0
VERTEX
  8
PTS2DXF
  6
CONTINUOUS
 10
12.02397
 20
56.03086
  0
VERTEX
  8
PTS2DXF
  6
CONTINUOUS
 10
12.03177
 20
56.03354
  0
VERTEX
  8
PTS2DXF
  6
CONTINUOUS
 10
12.04132
 20
56.04077
  0
VERTEX
  8
PTS2DXF
  6
CONTINUOUS
 10
12.05775
 20
56.04634
  0
VERTEX
  8
PTS2DXF
  6
CONTINUOUS
 10
12.07673
 20
56.05601
  0
VERTEX
  8
PTS2DXF
  6
CONTINUOUS
 10
12.09642
 20
56.06109
  0
VERTEX
  8
PTS2DXF
  6
CONTINUOUS
 10
12.11257
 20
56.06863
  0
VERTEX
  8
PTS2DXF
  6
CONTINUOUS
 10
12.16126
 20
56.09134
  0
VERTEX
  8
PTS2DXF
  6
CONTINUOUS
 10
12.17524
 20
56.09711
  0
VERTEX
  8
PTS2DXF
  6
CONTINUOUS
 10
12.18726
 20
56.10207
  0
VERTEX
  8
PTS2DXF
  6
CONTINUOUS
 10
12.25489
 20
56.11238
  0
VERTEX
  8
PTS2DXF
  6
CONTINUOUS
 10
12.27138
 20
56.11746
  0
VERTEX
  8
PTS2DXF
  6
CONTINUOUS
 10
12.29964
 20
56.1206
  0
VERTEX
  8
PTS2DXF
  6
CONTINUOUS
 10
12.31304
 20
56.11841
  0
VERTEX
  8
PTS2DXF
  6
CONTINUOUS
 10
12.32955
 20
56.11161
  0
VERTEX
  8
PTS2DXF
  6
CONTINUOUS
 10
12.36369
 20
56.10759
  0
VERTEX
  8
PTS2DXF
  6
CONTINUOUS
 10
12.37805
 20
56.09784
  0
VERTEX
  8
PTS2DXF
  6
CONTINUOUS
 10
12.43069
 20
56.08652
  0
VERTEX
  8
PTS2DXF
  6
CONTINUOUS
 10
12.45969
 20
56.08778
  0
VERTEX
  8
PTS2DXF
  6
CONTINUOUS
 10
12.49758
 20
56.08665
  0
VERTEX
  8
PTS2DXF
  6
CONTINUOUS
 10
12.54841
 20
56.07232
  0
VERTEX
  8
PTS2DXF
  6
CONTINUOUS
 10
12.58126
 20
56.05582
  0
VERTEX
  8
PTS2DXF
  6
CONTINUOUS
 10
12.61833
 20
56.03717
  0
VERTEX
  8
PTS2DXF
  6
CONTINUOUS
 10
12.63128
 20
56.03495
  0
VERTEX
  8
PTS2DXF
  6
CONTINUOUS
 10
12.63485
 20
56.03262
  0
VERTEX
  8
PTS2DXF
  6
CONTINUOUS
 10
12.63511
 20
56.02919
  0
VERTEX
  8
PTS2DXF
  6
CONTINUOUS
 10
12.61761
 20
56.01937
  0
VERTEX
  8
PTS2DXF
  6
CONTINUOUS
 10
12.61308
 20
56.00801
  0
VERTEX
  8
PTS2DXF
  6
CONTINUOUS
 10
12.60558
 20
56.00354
  0
VERTEX
  8
PTS2DXF
  6
CONTINUOUS
 10
12.59608
 20
56
  0
VERTEX
  8
PTS2DXF
  6
CONTINUOUS
 10
12.55786
 20
55.98332
  0
VERTEX
  8
PTS2DXF
  6
CONTINUOUS
 10
12.54007
 20
55.95256
  0
VERTEX
  8
PTS2DXF
  6
CONTINUOUS
 10
12.53329
 20
55.94485
  0
VERTEX
  8
PTS2DXF
  6
CONTINUOUS
 10
12.52703
 20
55.92936
  0
VERTEX
  8
PTS2DXF
  6
CONTINUOUS
 10
12.52271
 20
55.92178
  0
VERTEX
  8
PTS2DXF
  6
CONTINUOUS
 10
12.52447
 20
55.91689
  0
VERTEX
  8
PTS2DXF
  6
CONTINUOUS
 10
12.55035
 20
55.88143
  0
VERTEX
  8
PTS2DXF
  6
CONTINUOUS
 10
12.57178
 20
55.85783
  0
VERTEX
  8
PTS2DXF
  6
CONTINUOUS
 10
12.57893
 20
55.84241
  0
VERTEX
  8
PTS2DXF
  6
CONTINUOUS
 10
12.57883
 20
55.83029
  0
VERTEX
  8
PTS2DXF
  6
CONTINUOUS
 10
12.58224
 20
55.8171
  0
VERTEX
  8
PTS2DXF
  6
CONTINUOUS
 10
12.58631
 20
55.81141
  0
VERTEX
  8
PTS2DXF
  6
CONTINUOUS
 10
12.59949
 20
55.79298
  0
VERTEX
  8
PTS2DXF
  6
CONTINUOUS
 10
12.59737
 20
55.78096
  0
VERTEX
  8
PTS2DXF
  6
CONTINUOUS
 10
12.60282
 20
55.77362
  0
VERTEX
  8
PTS2DXF
  6
CONTINUOUS
 10
12.60309
 20
55.76697
  0
VERTEX
  8
PTS2DXF
  6
CONTINUOUS
 10
12.60646
 20
55.76225
  0
VERTEX
  8
PTS2DXF
  6
CONTINUOUS
 10
12.58557
 20
55.73483
  0
SEQEND
  0
POLYLINE
100
AcDb2dPolyline
 66
1
  8
PTS2DXF
  6
CONTINUOUS
 10
0
 20
0
 70
0
  0
VERTEX
  8
PTS2DXF
  6
CONTINUOUS
 10
15
 20
55.18967
  0
VERTEX
  8
PTS2DXF
  6
CONTINUOUS
 10
15.00427
 20
55.18813
  0
VERTEX
  8
PTS2DXF
  6
CONTINUOUS
 10
15.01794
 20
55.17828
  0
VERTEX
  8
PTS2DXF
  6
CONTINUOUS
 10
15.03137
 20
55.17327
  0
VERTEX
  8
PTS2DXF
  6
CONTINUOUS
 10
15.0416
 20
55.17237
  0
VERTEX
  8
PTS2DXF
  6
CONTINUOUS
 10
15.04712
 20
55.16787
  0
VERTEX
  8
PTS2DXF
  6
CONTINUOUS
 10
15.05791
 20
55.16372
  0
VERTEX
  8
PTS2DXF
  6
CONTINUOUS
 10
15.06153
 20
55.15981
  0
VERTEX
  8
PTS2DXF
  6
CONTINUOUS
 10
15.07202
 20
55.1582
  0
VERTEX
  8
PTS2DXF
  6
CONTINUOUS
 10
15.07648
 20
55.15446
  0
VERTEX
  8
PTS2DXF
  6
CONTINUOUS
 10
15.09657
 20
55.14877
  0
VERTEX
  8
PTS2DXF
  6
CONTINUOUS
 10
15.11661
 20
55.14492
  0
VERTEX
  8
PTS2DXF
  6
CONTINUOUS
 10
15.12046
 20
55.14214
  0
VERTEX
  8
PTS2DXF
  6
CONTINUOUS
 10
15.14019
 20
55.14267
  0
VERTEX
  8
PTS2DXF
  6
CONTINUOUS
 10
15.14262
 20
55.13884
  0
VERTEX
  8
PTS2DXF
  6
CONTINUOUS
 10
15.14863
 20
55.13889
  0
VERTEX
  8
PTS2DXF
  6
CONTINUOUS
 10
15.14859
 20
55.13269
  0
VERTEX
  8
PTS2DXF
  6
CONTINUOUS
 10
15.15797
 20
55.13161
  0
VERTEX
  8
PTS2DXF
  6
CONTINUOUS
 10
15.15884
 20
55.12995
  0
VERTEX
  8
PTS2DXF
  6
CONTINUOUS
 10
15.15469
 20
55.12724
  0
VERTEX
  8
PTS2DXF
  6
CONTINUOUS
 10
15.15677
 20
55.12365
  0
VERTEX
  8
PTS2DXF
  6
CONTINUOUS
 10
15.15099
 20
55.12082
  0
VERTEX
  8
PTS2DXF
  6
CONTINUOUS
 10
15.14531
 20
55.11247
  0
VERTEX
  8
PTS2DXF
  6
CONTINUOUS
 10
15.14991
 20
55.1055
  0
VERTEX
  8
PTS2DXF
  6
CONTINUOUS
 10
15.14764
 20
55.1022
  0
VERTEX
  8
PTS2DXF
  6
CONTINUOUS
 10
15.14937
 20
55.09887
  0
VERTEX
  8
PTS2DXF
  6
CONTINUOUS
 10
15.15786
 20
55.09142
  0
VERTEX
  8
PTS2DXF
  6
CONTINUOUS
 10
15.15512
 20
55.08769
  0
VERTEX
  8
PTS2DXF
  6
CONTINUOUS
 10
15.15822
 20
55.08128
  0
VERTEX
  8
PTS2DXF
  6
CONTINUOUS
 10
15.15455
 20
55.07693
  0
VERTEX
  8
PTS2DXF
  6
CONTINUOUS
 10
15.13762
 20
55.06634
  0
VERTEX
  8
PTS2DXF
  6
CONTINUOUS
 10
15.1373
 20
55.05878
  0
VERTEX
  8
PTS2DXF
  6
CONTINUOUS
 10
15.12807
 20
55.05457
  0
VERTEX
  8
PTS2DXF
  6
CONTINUOUS
 10
15.12493
 20
55.05087
  0
VERTEX
  8
PTS2DXF
  6
CONTINUOUS
 10
15.12462
 20
55.04538
  0
VERTEX
  8
PTS2DXF
  6
CONTINUOUS
 10
15.10957
 20
55.03604
  0
VERTEX
  8
PTS2DXF
  6
CONTINUOUS
 10
15.11614
 20
55.02894
  0
VERTEX
  8
PTS2DXF
  6
CONTINUOUS
 10
15.12264
 20
55.02552
  0
VERTEX
  8
PTS2DXF
  6
CONTINUOUS
 10
15.11708
 20
55.01969
  0
VERTEX
  8
PTS2DXF
  6
CONTINUOUS
 10
15.12134
 20
55.01505
  0
VERTEX
  8
PTS2DXF
  6
CONTINUOUS
 10
15.09992
 20
55.00176
  0
VERTEX
  8
PTS2DXF
  6
CONTINUOUS
 10
15.0979
 20
55
  0
VERTEX
  8
PTS2DXF
  6
CONTINUOUS
 10
15.08399
 20
54.98788
  0
VERTEX
  8
PTS2DXF
  6
CONTINUOUS
 10
15.07421
 20
54.98485
  0
VERTEX
  8
PTS2DXF
  6
CONTINUOUS
 10
15.05624
 20
54.98673
  0
VERTEX
  8
PTS2DXF
  6
CONTINUOUS
 10
15.03771
 20
54.99185
  0
VERTEX
  8
PTS2DXF
  6
CONTINUOUS
 10
15.02375
 20
54.99185
  0
VERTEX
  8
PTS2DXF
  6
CONTINUOUS
 10
15.01038
 20
54.99686
  0
VERTEX
  8
PTS2DXF
  6
CONTINUOUS
 10
15
 20
54.99741
  0
VERTEX
  8
PTS2DXF
  6
CONTINUOUS
 10
14.99353
 20
54.99775
  0
VERTEX
  8
PTS2DXF
  6
CONTINUOUS
 10
14.98828
 20
54.99808
  0
VERTEX
  8
PTS2DXF
  6
CONTINUOUS
 10
14.98263
 20
55
  0
VERTEX
  8
PTS2DXF
  6
CONTINUOUS
 10
14.97407
 20
55.00291
  0
VERTEX
  8
PTS2DXF
  6
CONTINUOUS
 10
14.95967
 20
55.0027
  0
VERTEX
  8
PTS2DXF
  6
CONTINUOUS
 10
14.93746
 20
55.01357
  0
VERTEX
  8
PTS2DXF
  6
CONTINUOUS
 10
14.92353
 20
55.01378
  0
VERTEX
  8
PTS2DXF
  6
CONTINUOUS
 10
14.91435
 20
55.01989
  0
VERTEX
  8
PTS2DXF
  6
CONTINUOUS
 10
14.89986
 20
55.02335
  0
VERTEX
  8
PTS2DXF
  6
CONTINUOUS
 10
14.88831
 20
55.02961
  0
VERTEX
  8
PTS2DXF
  6
CONTINUOUS
 10
14.85568
 20
55.03836
  0
VERTEX
  8
PTS2DXF
  6
CONTINUOUS
 10
14.83671
 20
55.04142
  0
VERTEX
  8
PTS2DXF
  6
CONTINUOUS
 10
14.83001
 20
55.03978
  0
VERTEX
  8
PTS2DXF
  6
CONTINUOUS
 10
14.80223
 20
55.05097
  0
VERTEX
  8
PTS2DXF
  6
CONTINUOUS
 10
14.79105
 20
55.05306
  0
VERTEX
  8
PTS2DXF
  6
CONTINUOUS
 10
14.77589
 20
55.05104
  0
VERTEX
  8
PTS2DXF
  6
CONTINUOUS
 10
14.76563
 20
55.05567
  0
VERTEX
  8
PTS2DXF
  6
CONTINUOUS
 10
14.75751
 20
55.05933
  0
VERTEX
  8
PTS2DXF
  6
CONTINUOUS
 10
14.74111
 20
55.06335
  0
VERTEX
  8
PTS2DXF
  6
CONTINUOUS
 10
14.73294
 20
55.06869
  0
VERTEX
  8
PTS2DXF
  6
CONTINUOUS
 10
14.72433
 20
55.07796
  0
VERTEX
  8
PTS2DXF
  6
CONTINUOUS
 10
14.7084
 20
55.08034
  0
VERTEX
  8
PTS2DXF
  6
CONTINUOUS
 10
14.6892
 20
55.0928
  0
VERTEX
  8
PTS2DXF
  6
CONTINUOUS
 10
14.6963
 20
55.09442
  0
VERTEX
  8
PTS2DXF
  6
CONTINUOUS
 10
14.69563
 20
55.09721
  0
VERTEX
  8
PTS2DXF
  6
CONTINUOUS
 10
14.69024
 20
55.09824
  0
VERTEX
  8
PTS2DXF
  6
CONTINUOUS
 10
14.68471
 20
55.09652
  0
VERTEX
  8
PTS2DXF
  6
CONTINUOUS
 10
14.68444
 20
55.09929
  0
VERTEX
  8
PTS2DXF
  6
CONTINUOUS
 10
14.68746
 20
55.10255
  0
VERTEX
  8
PTS2DXF
  6
CONTINUOUS
 10
14.69439
 20
55.10326
  0
VERTEX
  8
PTS2DXF
  6
CONTINUOUS
 10
14.69785
 20
55.10672
  0
VERTEX
  8
PTS2DXF
  6
CONTINUOUS
 10
14.70006
 20
55.11415
  0
VERTEX
  8
PTS2DXF
  6
CONTINUOUS
 10
14.69736
 20
55.12098
  0
VERTEX
  8
PTS2DXF
  6
CONTINUOUS
 10
14.70293
 20
55.12499
  0
VERTEX
  8
PTS2DXF
  6
CONTINUOUS
 10
14.70503
 20
55.1423
  0
VERTEX
  8
PTS2DXF
  6
CONTINUOUS
 10
14.70133
 20
55.14805
  0
VERTEX
  8
PTS2DXF
  6
CONTINUOUS
 10
14.70396
 20
55.16602
  0
VERTEX
  8
PTS2DXF
  6
CONTINUOUS
 10
14.69929
 20
55.18353
  0
VERTEX
  8
PTS2DXF
  6
CONTINUOUS
 10
14.70236
 20
55.18701
  0
VERTEX
  8
PTS2DXF
  6
CONTINUOUS
 10
14.69913
 20
55.19524
  0
VERTEX
  8
PTS2DXF
  6
CONTINUOUS
 10
14.70455
 20
55.20477
  0
VERTEX
  8
PTS2DXF
  6
CONTINUOUS
 10
14.70317
 20
55.21014
  0
VERTEX
  8
PTS2DXF
  6
CONTINUOUS
 10
14.70936
 20
55.21733
  0
VERTEX
  8
PTS2DXF
  6
CONTINUOUS
 10
14.7082
 20
55.22176
  0
VERTEX
  8
PTS2DXF
  6
CONTINUOUS
 10
14.71488
 20
55.22731
  0
VERTEX
  8
PTS2DXF
  6
CONTINUOUS
 10
14.71926
 20
55.23553
  0
VERTEX
  8
PTS2DXF
  6
CONTINUOUS
 10
14.73076
 20
55.24552
  0
VERTEX
  8
PTS2DXF
  6
CONTINUOUS
 10
14.73948
 20
55.25308
  0
VERTEX
  8
PTS2DXF
  6
CONTINUOUS
 10
14.74954
 20
55.26576
  0
VERTEX
  8
PTS2DXF
  6
CONTINUOUS
 10
14.75521
 20
55.27848
  0
VERTEX
  8
PTS2DXF
  6
CONTINUOUS
 10
14.74885
 20
55.28508
  0
VERTEX
  8
PTS2DXF
  6
CONTINUOUS
 10
14.75171
 20
55.28949
  0
VERTEX
  8
PTS2DXF
  6
CONTINUOUS
 10
14.77224
 20
55.30014
  0
VERTEX
  8
PTS2DXF
  6
CONTINUOUS
 10
14.77731
 20
55.29522
  0
VERTEX
  8
PTS2DXF
  6
CONTINUOUS
 10
14.7748
 20
55.29263
  0
VERTEX
  8
PTS2DXF
  6
CONTINUOUS
 10
14.77608
 20
55.29094
  0
VERTEX
  8
PTS2DXF
  6
CONTINUOUS
 10
14.78393
 20
55.28999
  0
VERTEX
  8
PTS2DXF
  6
CONTINUOUS
 10
14.79954
 20
55.27936
  0
VERTEX
  8
PTS2DXF
  6
CONTINUOUS
 10
14.80386
 20
55.27885
  0
VERTEX
  8
PTS2DXF
  6
CONTINUOUS
 10
14.80461
 20
55.27444
  0
VERTEX
  8
PTS2DXF
  6
CONTINUOUS
 10
14.81373
 20
55.26767
  0
VERTEX
  8
PTS2DXF
  6
CONTINUOUS
 10
14.81659
 20
55.25968
  0
VERTEX
  8
PTS2DXF
  6
CONTINUOUS
 10
14.82223
 20
55.25358
  0
VERTEX
  8
PTS2DXF
  6
CONTINUOUS
 10
14.82505
 20
55.25293
  0
VERTEX
  8
PTS2DXF
  6
CONTINUOUS
 10
14.82914
 20
55.25199
  0
VERTEX
  8
PTS2DXF
  6
CONTINUOUS
 10
14.83412
 20
55.24869
  0
VERTEX
  8
PTS2DXF
  6
CONTINUOUS
 10
14.84561
 20
55.24796
  0
VERTEX
  8
PTS2DXF
  6
CONTINUOUS
 10
14.8545
 20
55.24211
  0
VERTEX
  8
PTS2DXF
  6
CONTINUOUS
 10
14.87088
 20
55.23969
  0
VERTEX
  8
PTS2DXF
  6
CONTINUOUS
 10
14.87928
 20
55.23547
  0
VERTEX
  8
PTS2DXF
  6
CONTINUOUS
 10
14.88147
 20
55.23028
  0
VERTEX
  8
PTS2DXF
  6
CONTINUOUS
 10
14.88653
 20
55.22743
  0
VERTEX
  8
PTS2DXF
  6
CONTINUOUS
 10
14.90633
 20
55.22203
  0
VERTEX
  8
PTS2DXF
  6
CONTINUOUS
 10
14.91856
 20
55.22101
  0
VERTEX
  8
PTS2DXF
  6
CONTINUOUS
 10
14.93965
 20
55.21001
  0
VERTEX
  8
PTS2DXF
  6
CONTINUOUS
 10
14.94801
 20
55.20969
  0
VERTEX
  8
PTS2DXF
  6
CONTINUOUS
 10
14.95554
 20
55.21334
  0
VERTEX
  8
PTS2DXF
  6
CONTINUOUS
 10
14.96791
 20
55.21507
  0
VERTEX
  8
PTS2DXF
  6
CONTINUOUS
 10
14.97753
 20
55.21099
  0
VERTEX
  8
PTS2DXF
  6
CONTINUOUS
 10
14.9911
 20
55.1945
  0
VERTEX
  8
PTS2DXF
  6
CONTINUOUS
 10
14.99268
 20
55.19233
  0
VERTEX
  8
PTS2DXF
  6
CONTINUOUS
 10
15
 20
55.18967
  0
SEQEND
  0
POLYLINE
100
AcDb2dPolyline
 66
1
  8
PTS2DXF
  6
CONTINUOUS
 10
0
 20
0
 70
0
  0
VERTEX
  8
PTS2DXF
  6
CONTINUOUS
 10
10.81632
 20
55
  0
VERTEX
  8
PTS2DXF
  6
CONTINUOUS
 10
10.81741
 20
55.00326
  0
VERTEX
  8
PTS2DXF
  6
CONTINUOUS
 10
10.82507
 20
55.0085
  0
VERTEX
  8
PTS2DXF
  6
CONTINUOUS
 10
10.83103
 20
55.01677
  0
VERTEX
  8
PTS2DXF
  6
CONTINUOUS
 10
10.83205
 20
55.02313
  0
VERTEX
  8
PTS2DXF
  6
CONTINUOUS
 10
10.85274
 20
55.03572
  0
VERTEX
  8
PTS2DXF
  6
CONTINUOUS
 10
10.85142
 20
55.04262
  0
VERTEX
  8
PTS2DXF
  6
CONTINUOUS
 10
10.86262
 20
55.05552
  0
VERTEX
  8
PTS2DXF
  6
CONTINUOUS
 10
10.87041
 20
55.07149
  0
VERTEX
  8
PTS2DXF
  6
CONTINUOUS
 10
10.87755
 20
55.08612
  0
VERTEX
  8
PTS2DXF
  6
CONTINUOUS
 10
10.87698
 20
55.09254
  0
VERTEX
  8
PTS2DXF
  6
CONTINUOUS
 10
10.88907
 20
55.11432
  0
VERTEX
  8
PTS2DXF
  6
CONTINUOUS
 10
10.89702
 20
55.11817
  0
VERTEX
  8
PTS2DXF
  6
CONTINUOUS
 10
10.90246
 20
55.12485
  0
VERTEX
  8
PTS2DXF
  6
CONTINUOUS
 10
10.90694
 20
55.13796
  0
VERTEX
  8
PTS2DXF
  6
CONTINUOUS
 10
10.92685
 20
55.14988
  0
VERTEX
  8
PTS2DXF
  6
CONTINUOUS
 10
10.93556
 20
55.16125
  0
VERTEX
  8
PTS2DXF
  6
CONTINUOUS
 10
10.9406
 20
55.16383
  0
VERTEX
  8
PTS2DXF
  6
CONTINUOUS
 10
10.95086
 20
55.1628
  0
VERTEX
  8
PTS2DXF
  6
CONTINUOUS
 10
10.95942
 20
55.1568
  0
VERTEX
  8
PTS2DXF
  6
CONTINUOUS
 10
10.95963
 20
55.14904
  0
VERTEX
  8
PTS2DXF
  6
CONTINUOUS
 10
10.95968
 20
55.14742
  0
VERTEX
  8
PTS2DXF
  6
CONTINUOUS
 10
10.94348
 20
55.10499
  0
VERTEX
  8
PTS2DXF
  6
CONTINUOUS
 10
10.94157
 20
55.08585
  0
VERTEX
  8
PTS2DXF
  6
CONTINUOUS
 10
10.93277
 20
55.07334
  0
VERTEX
  8
PTS2DXF
  6
CONTINUOUS
 10
10.92868
 20
55.06021
  0
VERTEX
  8
PTS2DXF
  6
CONTINUOUS
 10
10.90854
 20
55.02785
  0
VERTEX
  8
PTS2DXF
  6
CONTINUOUS
 10
10.89645
 20
55.00755
  0
VERTEX
  8
PTS2DXF
  6
CONTINUOUS
 10
10.89571
 20
55
  0
VERTEX
  8
PTS2DXF
  6
CONTINUOUS
 10
10.89497
 20
54.99252
  0
VERTEX
  8
PTS2DXF
  6
CONTINUOUS
 10
10.88661
 20
54.9841
  0
VERTEX
  8
PTS2DXF
  6
CONTINUOUS
 10
10.87446
 20
54.97764
  0
VERTEX
  8
PTS2DXF
  6
CONTINUOUS
 10
10.84405
 20
54.9464
  0
VERTEX
  8
PTS2DXF
  6
CONTINUOUS
 10
10.83269
 20
54.92733
  0
VERTEX
  8
PTS2DXF
  6
CONTINUOUS
 10
10.83299
 20
54.92229
  0
VERTEX
  8
PTS2DXF
  6
CONTINUOUS
 10
10.83039
 20
54.91613
  0
VERTEX
  8
PTS2DXF
  6
CONTINUOUS
 10
10.82889
 20
54.91259
  0
VERTEX
  8
PTS2DXF
  6
CONTINUOUS
 10
10.82342
 20
54.90934
  0
VERTEX
  8
PTS2DXF
  6
CONTINUOUS
 10
10.82226
 20
54.89315
  0
VERTEX
  8
PTS2DXF
  6
CONTINUOUS
 10
10.81248
 20
54.8738
  0
VERTEX
  8
PTS2DXF
  6
CONTINUOUS
 10
10.79002
 20
54.84595
  0
VERTEX
  8
PTS2DXF
  6
CONTINUOUS
 10
10.77944
 20
54.82617
  0
VERTEX
  8
PTS2DXF
  6
CONTINUOUS
 10
10.78025
 20
54.82225
  0
VERTEX
  8
PTS2DXF
  6
CONTINUOUS
 10
10.77001
 20
54.80178
  0
VERTEX
  8
PTS2DXF
  6
CONTINUOUS
 10
10.76738
 20
54.79781
  0
VERTEX
  8
PTS2DXF
  6
CONTINUOUS
 10
10.75756
 20
54.78297
  0
VERTEX
  8
PTS2DXF
  6
CONTINUOUS
 10
10.75497
 20
54.7723
  0
VERTEX
  8
PTS2DXF
  6
CONTINUOUS
 10
10.73893
 20
54.74446
  0
VERTEX
  8
PTS2DXF
  6
CONTINUOUS
 10
10.7227
 20
54.73126
  0
VERTEX
  8
PTS2DXF
  6
CONTINUOUS
 10
10.70026
 20
54.72328
  0
VERTEX
  8
PTS2DXF
  6
CONTINUOUS
 10
10.68948
 20
54.72613
  0
VERTEX
  8
PTS2DXF
  6
CONTINUOUS
 10
10.67278
 20
54.74174
  0
VERTEX
  8
PTS2DXF
  6
CONTINUOUS
 10
10.67542
 20
54.74463
  0
VERTEX
  8
PTS2DXF
  6
CONTINUOUS
 10
10.67197
 20
54.75
  0
VERTEX
  8
PTS2DXF
  6
CONTINUOUS
 10
10.67604
 20
54.75299
  0
VERTEX
  8
PTS2DXF
  6
CONTINUOUS
 10
10.68001
 20
54.75592
  0
VERTEX
  8
PTS2DXF
  6
CONTINUOUS
 10
10.68009
 20
54.76095
  0
VERTEX
  8
PTS2DXF
  6
CONTINUOUS
 10
10.66495
 20
54.78085
  0
VERTEX
  8
PTS2DXF
  6
CONTINUOUS
 10
10.66611
 20
54.79339
  0
VERTEX
  8
PTS2DXF
  6
CONTINUOUS
 10
10.66375
 20
54.79781
  0
VERTEX
  8
PTS2DXF
  6
CONTINUOUS
 10
10.64884
 20
54.81176
  0
VERTEX
  8
PTS2DXF
  6
CONTINUOUS
 10
10.63016
 20
54.82353
  0
VERTEX
  8
PTS2DXF
  6
CONTINUOUS
 10
10.61948
 20
54.82775
  0
VERTEX
  8
PTS2DXF
  6
CONTINUOUS
 10
10.60968
 20
54.82873
  0
VERTEX
  8
PTS2DXF
  6
CONTINUOUS
 10
10.60151
 20
54.83447
  0
VERTEX
  8
PTS2DXF
  6
CONTINUOUS
 10
10.59266
 20
54.84523
  0
VERTEX
  8
PTS2DXF
  6
CONTINUOUS
 10
10.60158
 20
54.84354
  0
VERTEX
  8
PTS2DXF
  6
CONTINUOUS
 10
10.60597
 20
54.83723
  0
VERTEX
  8
PTS2DXF
  6
CONTINUOUS
 10
10.60705
 20
54.83703
  0
VERTEX
  8
PTS2DXF
  6
CONTINUOUS
 10
10.61854
 20
54.83486
  0
VERTEX
  8
PTS2DXF
  6
CONTINUOUS
 10
10.62724
 20
54.83482
  0
VERTEX
  8
PTS2DXF
  6
CONTINUOUS
 10
10.63367
 20
54.83165
  0
VERTEX
  8
PTS2DXF
  6
CONTINUOUS
 10
10.64006
 20
54.83237
  0
VERTEX
  8
PTS2DXF
  6
CONTINUOUS
 10
10.64577
 20
54.82991
  0
VERTEX
  8
PTS2DXF
  6
CONTINUOUS
 10
10.64936
 20
54.83025
  0
VERTEX
  8
PTS2DXF
  6
CONTINUOUS
 10
10.66139
 20
54.84497
  0
VERTEX
  8
PTS2DXF
  6
CONTINUOUS
 10
10.67235
 20
54.84806
  0
VERTEX
  8
PTS2DXF
  6
CONTINUOUS
 10
10.66723
 20
54.85256
  0
VERTEX
  8
PTS2DXF
  6
CONTINUOUS
 10
10.67044
 20
54.85726
  0
VERTEX
  8
PTS2DXF
  6
CONTINUOUS
 10
10.67413
 20
54.88
  0
VERTEX
  8
PTS2DXF
  6
CONTINUOUS
 10
10.67669
 20
54.88198
  0
VERTEX
  8
PTS2DXF
  6
CONTINUOUS
 10
10.68577
 20
54.8817
  0
VERTEX
  8
PTS2DXF
  6
CONTINUOUS
 10
10.68967
 20
54.87945
  0
VERTEX
  8
PTS2DXF
  6
CONTINUOUS
 10
10.69352
 20
54.881
  0
VERTEX
  8
PTS2DXF
  6
CONTINUOUS
 10
10.69585
 20
54.8795
  0
VERTEX
  8
PTS2DXF
  6
CONTINUOUS
 10
10.69223
 20
54.87464
  0
VERTEX
  8
PTS2DXF
  6
CONTINUOUS
 10
10.70494
 20
54.87082
  0
VERTEX
  8
PTS2DXF
  6
CONTINUOUS
 10
10.70852
 20
54.87527
  0
VERTEX
  8
PTS2DXF
  6
CONTINUOUS
 10
10.70459
 20
54.87951
  0
VERTEX
  8
PTS2DXF
  6
CONTINUOUS
 10
10.70983
 20
54.87913
  0
VERTEX
  8
PTS2DXF
  6
CONTINUOUS
 10
10.71523
 20
54.87506
  0
VERTEX
  8
PTS2DXF
  6
CONTINUOUS
 10
10.7309
 20
54.87754
  0
VERTEX
  8
PTS2DXF
  6
CONTINUOUS
 10
10.7208
 20
54.8838
  0
VERTEX
  8
PTS2DXF
  6
CONTINUOUS
 10
10.71762
 20
54.88368
  0
VERTEX
  8
PTS2DXF
  6
CONTINUOUS
 10
10.71811
 20
54.88892
  0
VERTEX
  8
PTS2DXF
  6
CONTINUOUS
 10
10.71486
 20
54.89222
  0
VERTEX
  8
PTS2DXF
  6
CONTINUOUS
 10
10.72051
 20
54.89342
  0
VERTEX
  8
PTS2DXF
  6
CONTINUOUS
 10
10.71206
 20
54.89619
  0
VERTEX
  8
PTS2DXF
  6
CONTINUOUS
 10
10.71087
 20
54.90035
  0
VERTEX
  8
PTS2DXF
  6
CONTINUOUS
 10
10.71288
 20
54.90486
  0
VERTEX
  8
PTS2DXF
  6
CONTINUOUS
 10
10.70984
 20
54.90632
  0
VERTEX
  8
PTS2DXF
  6
CONTINUOUS
 10
10.70474
 20
54.9026
  0
VERTEX
  8
PTS2DXF
  6
CONTINUOUS
 10
10.7018
 20
54.89652
  0
VERTEX
  8
PTS2DXF
  6
CONTINUOUS
 10
10.68823
 20
54.89968
  0
VERTEX
  8
PTS2DXF
  6
CONTINUOUS
 10
10.68526
 20
54.89749
  0
VERTEX
  8
PTS2DXF
  6
CONTINUOUS
 10
10.68249
 20
54.89758
  0
VERTEX
  8
PTS2DXF
  6
CONTINUOUS
 10
10.67833
 20
54.90388
  0
VERTEX
  8
PTS2DXF
  6
CONTINUOUS
 10
10.67796
 20
54.90846
  0
VERTEX
  8
PTS2DXF
  6
CONTINUOUS
 10
10.68547
 20
54.91257
  0
VERTEX
  8
PTS2DXF
  6
CONTINUOUS
 10
10.68699
 20
54.9203
  0
VERTEX
  8
PTS2DXF
  6
CONTINUOUS
 10
10.69263
 20
54.92561
  0
VERTEX
  8
PTS2DXF
  6
CONTINUOUS
 10
10.70335
 20
54.93007
  0
VERTEX
  8
PTS2DXF
  6
CONTINUOUS
 10
10.70342
 20
54.93858
  0
VERTEX
  8
PTS2DXF
  6
CONTINUOUS
 10
10.70273
 20
54.94038
  0
VERTEX
  8
PTS2DXF
  6
CONTINUOUS
 10
10.7163
 20
54.94132
  0
VERTEX
  8
PTS2DXF
  6
CONTINUOUS
 10
10.72478
 20
54.94723
  0
VERTEX
  8
PTS2DXF
  6
CONTINUOUS
 10
10.72831
 20
54.951
  0
VERTEX
  8
PTS2DXF
  6
CONTINUOUS
 10
10.72776
 20
54.95354
  0
VERTEX
  8
PTS2DXF
  6
CONTINUOUS
 10
10.7643
 20
54.97501
  0
VERTEX
  8
PTS2DXF
  6
CONTINUOUS
 10
10.77032
 20
54.97573
  0
VERTEX
  8
PTS2DXF
  6
CONTINUOUS
 10
10.77596
 20
54.98081
  0
VERTEX
  8
PTS2DXF
  6
CONTINUOUS
 10
10.78889
 20
54.97903
  0
VERTEX
  8
PTS2DXF
  6
CONTINUOUS
 10
10.79748
 20
54.98173
  0
VERTEX
  8
PTS2DXF
  6
CONTINUOUS
 10
10.81407
 20
54.99331
  0
VERTEX
  8
PTS2DXF
  6
CONTINUOUS
 10
10.81632
 20
55
  0
SEQEND
  0
POLYLINE
100
AcDb2dPolyline
 66
1
  8
PTS2DXF
  6
CONTINUOUS
 10
0
 20
0
 70
0
  0
VERTEX
  8
PTS2DXF
  6
CONTINUOUS
 10
9.975139
 20
55
  0
VERTEX
  8
PTS2DXF
  6
CONTINUOUS
 10
9.978588
 20
54.99633
  0
VERTEX
  8
PTS2DXF
  6
CONTINUOUS
 10
9.990736
 20
54.98917
  0
VERTEX
  8
PTS2DXF
  6
CONTINUOUS
 10
9.998495
 20
54.98692
  0
VERTEX
  8
PTS2DXF
  6
CONTINUOUS
 10
10
 20
54.98561
  0
VERTEX
  8
PTS2DXF
  6
CONTINUOUS
 10
10.00556
 20
54.98079
  0
VERTEX
  8
PTS2DXF
  6
CONTINUOUS
 10
10.00743
 20
54.97412
  0
VERTEX
  8
PTS2DXF
  6
CONTINUOUS
 10
10.01814
 20
54.95877
  0
VERTEX
  8
PTS2DXF
  6
CONTINUOUS
 10
10.02955
 20
54.94765
  0
VERTEX
  8
PTS2DXF
  6
CONTINUOUS
 10
10.04319
 20
54.93436
  0
VERTEX
  8
PTS2DXF
  6
CONTINUOUS
 10
10.0463
 20
54.92856
  0
VERTEX
  8
PTS2DXF
  6
CONTINUOUS
 10
10.04565
 20
54.92012
  0
VERTEX
  8
PTS2DXF
  6
CONTINUOUS
 10
10.05105
 20
54.9081
  0
VERTEX
  8
PTS2DXF
  6
CONTINUOUS
 10
10.05976
 20
54.89805
  0
VERTEX
  8
PTS2DXF
  6
CONTINUOUS
 10
10.06743
 20
54.89488
  0
VERTEX
  8
PTS2DXF
  6
CONTINUOUS
 10
10.07302
 20
54.88034
  0
VERTEX
  8
PTS2DXF
  6
CONTINUOUS
 10
10.07227
 20
54.87579
  0
VERTEX
  8
PTS2DXF
  6
CONTINUOUS
 10
10.06737
 20
54.87386
  0
VERTEX
  8
PTS2DXF
  6
CONTINUOUS
 10
10.0374
 20
54.8751
  0
VERTEX
  8
PTS2DXF
  6
CONTINUOUS
 10
10.0226
 20
54.87297
  0
VERTEX
  8
PTS2DXF
  6
CONTINUOUS
 10
10.01238
 20
54.86866
  0
VERTEX
  8
PTS2DXF
  6
CONTINUOUS
 10
10.00328
 20
54.86004
  0
VERTEX
  8
PTS2DXF
  6
CONTINUOUS
 10
10
 20
54.8587
  0
VERTEX
  8
PTS2DXF
  6
CONTINUOUS
 10
9.991573
 20
54.85526
  0
VERTEX
  8
PTS2DXF
  6
CONTINUOUS
 10
9.959144
 20
54.85518
  0
VERTEX
  8
PTS2DXF
  6
CONTINUOUS
 10
9.937919
 20
54.85686
  0
VERTEX
  8
PTS2DXF
  6
CONTINUOUS
 10
9.909802
 20
54.86693
  0
VERTEX
  8
PTS2DXF
  6
CONTINUOUS
 10
9.894406
 20
54.86731
  0
VERTEX
  8
PTS2DXF
  6
CONTINUOUS
 10
9.880926
 20
54.87222
  0
VERTEX
  8
PTS2DXF
  6
CONTINUOUS
 10
9.872661
 20
54.87814
  0
VERTEX
  8
PTS2DXF
  6
CONTINUOUS
 10
9.872172
 20
54.88226
  0
VERTEX
  8
PTS2DXF
  6
CONTINUOUS
 10
9.88324
 20
54.88747
  0
VERTEX
  8
PTS2DXF
  6
CONTINUOUS
 10
9.890821
 20
54.89368
  0
VERTEX
  8
PTS2DXF
  6
CONTINUOUS
 10
9.901793
 20
54.89752
  0
VERTEX
  8
PTS2DXF
  6
CONTINUOUS
 10
9.910607
 20
54.89364
  0
VERTEX
  8
PTS2DXF
  6
CONTINUOUS
 10
9.915266
 20
54.88713
  0
VERTEX
  8
PTS2DXF
  6
CONTINUOUS
 10
9.916155
 20
54.88702
  0
VERTEX
  8
PTS2DXF
  6
CONTINUOUS
 10
9.927818
 20
54.88567
  0
VERTEX
  8
PTS2DXF
  6
CONTINUOUS
 10
9.936577
 20
54.88111
  0
VERTEX
  8
PTS2DXF
  6
CONTINUOUS
 10
9.952887
 20
54.87704
  0
VERTEX
  8
PTS2DXF
  6
CONTINUOUS
 10
9.957485
 20
54.86984
  0
VERTEX
  8
PTS2DXF
  6
CONTINUOUS
 10
9.968179
 20
54.87003
  0
VERTEX
  8
PTS2DXF
  6
CONTINUOUS
 10
9.984765
 20
54.85932
  0
VERTEX
  8
PTS2DXF
  6
CONTINUOUS
 10
9.989484
 20
54.85897
  0
VERTEX
  8
PTS2DXF
  6
CONTINUOUS
 10
9.995807
 20
54.86407
  0
VERTEX
  8
PTS2DXF
  6
CONTINUOUS
 10
9.98693
 20
54.87732
  0
VERTEX
  8
PTS2DXF
  6
CONTINUOUS
 10
9.977818
 20
54.88235
  0
VERTEX
  8
PTS2DXF
  6
CONTINUOUS
 10
9.949438
 20
54.89426
  0
VERTEX
  8
PTS2DXF
  6
CONTINUOUS
 10
9.923778
 20
54.90039
  0
VERTEX
  8
PTS2DXF
  6
CONTINUOUS
 10
9.915131
 20
54.90473
  0
VERTEX
  8
PTS2DXF
  6
CONTINUOUS
 10
9.908895
 20
54.90785
  0
VERTEX
  8
PTS2DXF
  6
CONTINUOUS
 10
9.891954
 20
54.90896
  0
VERTEX
  8
PTS2DXF
  6
CONTINUOUS
 10
9.886649
 20
54.9068
  0
VERTEX
  8
PTS2DXF
  6
CONTINUOUS
 10
9.883033
 20
54.90073
  0
VERTEX
  8
PTS2DXF
  6
CONTINUOUS
 10
9.872725
 20
54.90052
  0
VERTEX
  8
PTS2DXF
  6
CONTINUOUS
 10
9.863321
 20
54.89642
  0
VERTEX
  8
PTS2DXF
  6
CONTINUOUS
 10
9.840387
 20
54.89127
  0
VERTEX
  8
PTS2DXF
  6
CONTINUOUS
 10
9.833606
 20
54.89052
  0
VERTEX
  8
PTS2DXF
  6
CONTINUOUS
 10
9.825624
 20
54.89505
  0
VERTEX
  8
PTS2DXF
  6
CONTINUOUS
 10
9.81025
 20
54.89588
  0
VERTEX
  8
PTS2DXF
  6
CONTINUOUS
 10
9.787691
 20
54.90694
  0
VERTEX
  8
PTS2DXF
  6
CONTINUOUS
 10
9.784952
 20
54.91842
  0
VERTEX
  8
PTS2DXF
  6
CONTINUOUS
 10
9.773224
 20
54.92053
  0
VERTEX
  8
PTS2DXF
  6
CONTINUOUS
 10
9.767509
 20
54.93483
  0
VERTEX
  8
PTS2DXF
  6
CONTINUOUS
 10
9.767797
 20
54.93885
  0
VERTEX
  8
PTS2DXF
  6
CONTINUOUS
 10
9.768014
 20
54.9419
  0
VERTEX
  8
PTS2DXF
  6
CONTINUOUS
 10
9.763418
 20
54.95526
  0
VERTEX
  8
PTS2DXF
  6
CONTINUOUS
 10
9.765688
 20
54.95932
  0
VERTEX
  8
PTS2DXF
  6
CONTINUOUS
 10
9.761549
 20
54.97358
  0
VERTEX
  8
PTS2DXF
  6
CONTINUOUS
 10
9.755015
 20
54.97647
  0
VERTEX
  8
PTS2DXF
  6
CONTINUOUS
 10
9.754797
 20
54.97899
  0
VERTEX
  8
PTS2DXF
  6
CONTINUOUS
 10
9.760202
 20
54.98252
  0
VERTEX
  8
PTS2DXF
  6
CONTINUOUS
 10
9.763733
 20
54.98198
  0
VERTEX
  8
PTS2DXF
  6
CONTINUOUS
 10
9.768771
 20
54.97478
  0
VERTEX
  8
PTS2DXF
  6
CONTINUOUS
 10
9.77641
 20
54.97071
  0
VERTEX
  8
PTS2DXF
  6
CONTINUOUS
 10
9.790675
 20
54.9706
  0
VERTEX
  8
PTS2DXF
  6
CONTINUOUS
 10
9.802188
 20
54.95982
  0
VERTEX
  8
PTS2DXF
  6
CONTINUOUS
 10
9.8087
 20
54.95669
  0
VERTEX
  8
PTS2DXF
  6
CONTINUOUS
 10
9.815606
 20
54.94807
  0
VERTEX
  8
PTS2DXF
  6
CONTINUOUS
 10
9.824618
 20
54.94122
  0
VERTEX
  8
PTS2DXF
  6
CONTINUOUS
 10
9.83195
 20
54.93853
  0
VERTEX
  8
PTS2DXF
  6
CONTINUOUS
 10
9.824963
 20
54.93505
  0
VERTEX
  8
PTS2DXF
  6
CONTINUOUS
 10
9.834404
 20
54.93413
  0
VERTEX
  8
PTS2DXF
  6
CONTINUOUS
 10
9.837287
 20
54.93218
  0
VERTEX
  8
PTS2DXF
  6
CONTINUOUS
 10
9.839312
 20
54.93082
  0
VERTEX
  8
PTS2DXF
  6
CONTINUOUS
 10
9.84411
 20
54.93687
  0
VERTEX
  8
PTS2DXF
  6
CONTINUOUS
 10
9.884974
 20
54.94591
  0
VERTEX
  8
PTS2DXF
  6
CONTINUOUS
 10
9.884274
 20
54.94785
  0
VERTEX
  8
PTS2DXF
  6
CONTINUOUS
 10
9.853277
 20
54.94304
  0
VERTEX
  8
PTS2DXF
  6
CONTINUOUS
 10
9.840939
 20
54.94768
  0
VERTEX
  8
PTS2DXF
  6
CONTINUOUS
 10
9.840741
 20
54.95042
  0
VERTEX
  8
PTS2DXF
  6
CONTINUOUS
 10
9.852789
 20
54.95195
  0
VERTEX
  8
PTS2DXF
  6
CONTINUOUS
 10
9.853684
 20
54.95399
  0
VERTEX
  8
PTS2DXF
  6
CONTINUOUS
 10
9.839148
 20
54.95572
  0
VERTEX
  8
PTS2DXF
  6
CONTINUOUS
 10
9.835391
 20
54.95855
  0
VERTEX
  8
PTS2DXF
  6
CONTINUOUS
 10
9.842683
 20
54.96614
  0
VERTEX
  8
PTS2DXF
  6
CONTINUOUS
 10
9.853801
 20
54.96637
  0
VERTEX
  8
PTS2DXF
  6
CONTINUOUS
 10
9.858178
 20
54.96915
  0
VERTEX
  8
PTS2DXF
  6
CONTINUOUS
 10
9.866997
 20
54.96979
  0
VERTEX
  8
PTS2DXF
  6
CONTINUOUS
 10
9.875796
 20
54.96898
  0
VERTEX
  8
PTS2DXF
  6
CONTINUOUS
 10
9.886238
 20
54.97078
  0
VERTEX
  8
PTS2DXF
  6
CONTINUOUS
 10
9.882878
 20
54.97361
  0
VERTEX
  8
PTS2DXF
  6
CONTINUOUS
 10
9.862542
 20
54.97205
  0
VERTEX
  8
PTS2DXF
  6
CONTINUOUS
 10
9.849828
 20
54.96935
  0
VERTEX
  8
PTS2DXF
  6
CONTINUOUS
 10
9.821136
 20
54.9806
  0
VERTEX
  8
PTS2DXF
  6
CONTINUOUS
 10
9.78765
 20
54.98369
  0
VERTEX
  8
PTS2DXF
  6
CONTINUOUS
 10
9.783195
 20
54.98791
  0
VERTEX
  8
PTS2DXF
  6
CONTINUOUS
 10
9.787799
 20
54.99194
  0
VERTEX
  8
PTS2DXF
  6
CONTINUOUS
 10
9.804712
 20
54.99444
  0
VERTEX
  8
PTS2DXF
  6
CONTINUOUS
 10
9.807419
 20
54.99727
  0
VERTEX
  8
PTS2DXF
  6
CONTINUOUS
 10
9.779724
 20
54.99485
  0
VERTEX
  8
PTS2DXF
  6
CONTINUOUS
 10
9.776784
 20
54.99812
  0
VERTEX
  8
PTS2DXF
  6
CONTINUOUS
 10
9.779229
 20
55
  0
VERTEX
  8
PTS2DXF
  6
CONTINUOUS
 10
9.782244
 20
55.00232
  0
VERTEX
  8
PTS2DXF
  6
CONTINUOUS
 10
9.788074
 20
55.00329
  0
VERTEX
  8
PTS2DXF
  6
CONTINUOUS
 10
9.79188
 20
55.00392
  0
VERTEX
  8
PTS2DXF
  6
CONTINUOUS
 10
9.796846
 20
55.00677
  0
VERTEX
  8
PTS2DXF
  6
CONTINUOUS
 10
9.792851
 20
55.01189
  0
VERTEX
  8
PTS2DXF
  6
CONTINUOUS
 10
9.7655
 20
55.01232
  0
VERTEX
  8
PTS2DXF
  6
CONTINUOUS
 10
9.753419
 20
55.00986
  0
VERTEX
  8
PTS2DXF
  6
CONTINUOUS
 10
9.718081
 20
55.00955
  0
VERTEX
  8
PTS2DXF
  6
CONTINUOUS
 10
9.705244
 20
55.00757
  0
VERTEX
  8
PTS2DXF
  6
CONTINUOUS
 10
9.69816
 20
55.00842
  0
VERTEX
  8
PTS2DXF
  6
CONTINUOUS
 10
9.684232
 20
55.01354
  0
VERTEX
  8
PTS2DXF
  6
CONTINUOUS
 10
9.673579
 20
55.02018
  0
VERTEX
  8
PTS2DXF
  6
CONTINUOUS
 10
9.662719
 20
55.02385
  0
VERTEX
  8
PTS2DXF
  6
CONTINUOUS
 10
9.660134
 20
55.02666
  0
VERTEX
  8
PTS2DXF
  6
CONTINUOUS
 10
9.667978
 20
55.03104
  0
VERTEX
  8
PTS2DXF
  6
CONTINUOUS
 10
9.686386
 20
55.03313
  0
VERTEX
  8
PTS2DXF
  6
CONTINUOUS
 10
9.696644
 20
55.03792
  0
VERTEX
  8
PTS2DXF
  6
CONTINUOUS
 10
9.702163
 20
55.03733
  0
VERTEX
  8
PTS2DXF
  6
CONTINUOUS
 10
9.703596
 20
55.03609
  0
VERTEX
  8
PTS2DXF
  6
CONTINUOUS
 10
9.707029
 20
55.03311
  0
VERTEX
  8
PTS2DXF
  6
CONTINUOUS
 10
9.715718
 20
55.03245
  0
VERTEX
  8
PTS2DXF
  6
CONTINUOUS
 10
9.717399
 20
55.03378
  0
VERTEX
  8
PTS2DXF
  6
CONTINUOUS
 10
9.71098
 20
55.0385
  0
VERTEX
  8
PTS2DXF
  6
CONTINUOUS
 10
9.702798
 20
55.04074
  0
VERTEX
  8
PTS2DXF
  6
CONTINUOUS
 10
9.707716
 20
55.04292
  0
VERTEX
  8
PTS2DXF
  6
CONTINUOUS
 10
9.706322
 20
55.04569
  0
VERTEX
  8
PTS2DXF
  6
CONTINUOUS
 10
9.699548
 20
55.04539
  0
VERTEX
  8
PTS2DXF
  6
CONTINUOUS
 10
9.685085
 20
55.03727
  0
VERTEX
  8
PTS2DXF
  6
CONTINUOUS
 10
9.677902
 20
55.03675
  0
VERTEX
  8
PTS2DXF
  6
CONTINUOUS
 10
9.664231
 20
55.04004
  0
VERTEX
  8
PTS2DXF
  6
CONTINUOUS
 10
9.645581
 20
55.04024
  0
VERTEX
  8
PTS2DXF
  6
CONTINUOUS
 10
9.640848
 20
55.04651
  0
VERTEX
  8
PTS2DXF
  6
CONTINUOUS
 10
9.642412
 20
55.05196
  0
VERTEX
  8
PTS2DXF
  6
CONTINUOUS
 10
9.653022
 20
55.05605
  0
VERTEX
  8
PTS2DXF
  6
CONTINUOUS
 10
9.664422
 20
55.06584
  0
VERTEX
  8
PTS2DXF
  6
CONTINUOUS
 10
9.68889
 20
55.07487
  0
VERTEX
  8
PTS2DXF
  6
CONTINUOUS
 10
9.705461
 20
55.07883
  0
VERTEX
  8
PTS2DXF
  6
CONTINUOUS
 10
9.744436
 20
55.08477
  0
VERTEX
  8
PTS2DXF
  6
CONTINUOUS
 10
9.764215
 20
55.08339
  0
VERTEX
  8
PTS2DXF
  6
CONTINUOUS
 10
9.818645
 20
55.06655
  0
VERTEX
  8
PTS2DXF
  6
CONTINUOUS
 10
9.838634
 20
55.0519
  0
VERTEX
  8
PTS2DXF
  6
CONTINUOUS
 10
9.853436
 20
55.04789
  0
VERTEX
  8
PTS2DXF
  6
CONTINUOUS
 10
9.878942
 20
55.02761
  0
VERTEX
  8
PTS2DXF
  6
CONTINUOUS
 10
9.882748
 20
55.02629
  0
VERTEX
  8
PTS2DXF
  6
CONTINUOUS
 10
9.900229
 20
55.02024
  0
VERTEX
  8
PTS2DXF
  6
CONTINUOUS
 10
9.92762
 20
55.02024
  0
VERTEX
  8
PTS2DXF
  6
CONTINUOUS
 10
9.959537
 20
55.01189
  0
VERTEX
  8
PTS2DXF
  6
CONTINUOUS
 10
9.968678
 20
55.00687
  0
VERTEX
  8
PTS2DXF
  6
CONTINUOUS
 10
9.975139
 20
55
  0
SEQEND
  0
POLYLINE
100
AcDb2dPolyline
 66
1
  8
PTS2DXF
  6
CONTINUOUS
 10
0
 20
0
 70
0
  0
VERTEX
  8
PTS2DXF
  6
CONTINUOUS
 10
12.53153
 20
55
  0
VERTEX
  8
PTS2DXF
  6
CONTINUOUS
 10
12.53638
 20
54.99236
  0
VERTEX
  8
PTS2DXF
  6
CONTINUOUS
 10
12.5484
 20
54.98151
  0
VERTEX
  8
PTS2DXF
  6
CONTINUOUS
 10
12.55637
 20
54.9587
  0
VERTEX
  8
PTS2DXF
  6
CONTINUOUS
 10
12.55172
 20
54.9509
  0
VERTEX
  8
PTS2DXF
  6
CONTINUOUS
 10
12.54289
 20
54.94444
  0
VERTEX
  8
PTS2DXF
  6
CONTINUOUS
 10
12.53505
 20
54.94228
  0
VERTEX
  8
PTS2DXF
  6
CONTINUOUS
 10
12.51036
 20
54.9418
  0
VERTEX
  8
PTS2DXF
  6
CONTINUOUS
 10
12.48124
 20
54.94954
  0
VERTEX
  8
PTS2DXF
  6
CONTINUOUS
 10
12.47064
 20
54.95048
  0
VERTEX
  8
PTS2DXF
  6
CONTINUOUS
 10
12.46321
 20
54.95425
  0
VERTEX
  8
PTS2DXF
  6
CONTINUOUS
 10
12.45338
 20
54.95492
  0
VERTEX
  8
PTS2DXF
  6
CONTINUOUS
 10
12.43176
 20
54.95956
  0
VERTEX
  8
PTS2DXF
  6
CONTINUOUS
 10
12.38308
 20
54.9638
  0
VERTEX
  8
PTS2DXF
  6
CONTINUOUS
 10
12.36755
 20
54.96358
  0
VERTEX
  8
PTS2DXF
  6
CONTINUOUS
 10
12.3448
 20
54.95978
  0
VERTEX
  8
PTS2DXF
  6
CONTINUOUS
 10
12.32792
 20
54.95456
  0
VERTEX
  8
PTS2DXF
  6
CONTINUOUS
 10
12.3241
 20
54.95337
  0
VERTEX
  8
PTS2DXF
  6
CONTINUOUS
 10
12.31086
 20
54.9464
  0
VERTEX
  8
PTS2DXF
  6
CONTINUOUS
 10
12.29129
 20
54.93948
  0
VERTEX
  8
PTS2DXF
  6
CONTINUOUS
 10
12.26741
 20
54.92084
  0
VERTEX
  8
PTS2DXF
  6
CONTINUOUS
 10
12.24411
 20
54.90652
  0
VERTEX
  8
PTS2DXF
  6
CONTINUOUS
 10
12.23324
 20
54.89303
  0
VERTEX
  8
PTS2DXF
  6
CONTINUOUS
 10
12.21014
 20
54.88007
  0
VERTEX
  8
PTS2DXF
  6
CONTINUOUS
 10
12.19597
 20
54.8777
  0
VERTEX
  8
PTS2DXF
  6
CONTINUOUS
 10
12.17769
 20
54.87735
  0
VERTEX
  8
PTS2DXF
  6
CONTINUOUS
 10
12.17081
 20
54.87842
  0
VERTEX
  8
PTS2DXF
  6
CONTINUOUS
 10
12.15749
 20
54.8805
  0
VERTEX
  8
PTS2DXF
  6
CONTINUOUS
 10
12.15058
 20
54.8792
  0
VERTEX
  8
PTS2DXF
  6
CONTINUOUS
 10
12.14591
 20
54.87986
  0
VERTEX
  8
PTS2DXF
  6
CONTINUOUS
 10
12.1282
 20
54.89641
  0
VERTEX
  8
PTS2DXF
  6
CONTINUOUS
 10
12.12996
 20
54.89771
  0
VERTEX
  8
PTS2DXF
  6
CONTINUOUS
 10
12.13502
 20
54.89703
  0
VERTEX
  8
PTS2DXF
  6
CONTINUOUS
 10
12.13744
 20
54.89418
  0
VERTEX
  8
PTS2DXF
  6
CONTINUOUS
 10
12.14299
 20
54.89417
  0
VERTEX
  8
PTS2DXF
  6
CONTINUOUS
 10
12.14875
 20
54.89896
  0
VERTEX
  8
PTS2DXF
  6
CONTINUOUS
 10
12.14769
 20
54.89992
  0
VERTEX
  8
PTS2DXF
  6
CONTINUOUS
 10
12.11086
 20
54.90035
  0
VERTEX
  8
PTS2DXF
  6
CONTINUOUS
 10
12.10603
 20
54.90284
  0
VERTEX
  8
PTS2DXF
  6
CONTINUOUS
 10
12.1095
 20
54.90521
  0
VERTEX
  8
PTS2DXF
  6
CONTINUOUS
 10
12.12557
 20
54.90682
  0
VERTEX
  8
PTS2DXF
  6
CONTINUOUS
 10
12.11447
 20
54.91622
  0
VERTEX
  8
PTS2DXF
  6
CONTINUOUS
 10
12.11491
 20
54.91963
  0
VERTEX
  8
PTS2DXF
  6
CONTINUOUS
 10
12.12301
 20
54.93027
  0
VERTEX
  8
PTS2DXF
  6
CONTINUOUS
 10
12.13643
 20
54.93531
  0
VERTEX
  8
PTS2DXF
  6
CONTINUOUS
 10
12.14927
 20
54.94014
  0
VERTEX
  8
PTS2DXF
  6
CONTINUOUS
 10
12.13063
 20
54.94643
  0
VERTEX
  8
PTS2DXF
  6
CONTINUOUS
 10
12.12502
 20
54.95536
  0
VERTEX
  8
PTS2DXF
  6
CONTINUOUS
 10
12.13666
 20
54.95944
  0
VERTEX
  8
PTS2DXF
  6
CONTINUOUS
 10
12.14147
 20
54.9629
  0
VERTEX
  8
PTS2DXF
  6
CONTINUOUS
 10
12.14754
 20
54.96379
  0
VERTEX
  8
PTS2DXF
  6
CONTINUOUS
 10
12.14999
 20
54.96734
  0
VERTEX
  8
PTS2DXF
  6
CONTINUOUS
 10
12.16061
 20
54.96964
  0
VERTEX
  8
PTS2DXF
  6
CONTINUOUS
 10
12.16665
 20
54.97029
  0
VERTEX
  8
PTS2DXF
  6
CONTINUOUS
 10
12.17347
 20
54.96771
  0
VERTEX
  8
PTS2DXF
  6
CONTINUOUS
 10
12.18325
 20
54.9666
  0
VERTEX
  8
PTS2DXF
  6
CONTINUOUS
 10
12.1858
 20
54.96786
  0
VERTEX
  8
PTS2DXF
  6
CONTINUOUS
 10
12.18216
 20
54.97351
  0
VERTEX
  8
PTS2DXF
  6
CONTINUOUS
 10
12.17204
 20
54.98127
  0
VERTEX
  8
PTS2DXF
  6
CONTINUOUS
 10
12.17352
 20
54.9835
  0
VERTEX
  8
PTS2DXF
  6
CONTINUOUS
 10
12.18191
 20
54.98383
  0
VERTEX
  8
PTS2DXF
  6
CONTINUOUS
 10
12.19927
 20
54.97987
  0
VERTEX
  8
PTS2DXF
  6
CONTINUOUS
 10
12.20555
 20
54.97617
  0
VERTEX
  8
PTS2DXF
  6
CONTINUOUS
 10
12.20783
 20
54.96623
  0
VERTEX
  8
PTS2DXF
  6
CONTINUOUS
 10
12.21412
 20
54.96682
  0
VERTEX
  8
PTS2DXF
  6
CONTINUOUS
 10
12.21788
 20
54.96717
  0
VERTEX
  8
PTS2DXF
  6
CONTINUOUS
 10
12.23457
 20
54.97331
  0
VERTEX
  8
PTS2DXF
  6
CONTINUOUS
 10
12.2682
 20
54.97826
  0
VERTEX
  8
PTS2DXF
  6
CONTINUOUS
 10
12.26776
 20
54.98102
  0
VERTEX
  8
PTS2DXF
  6
CONTINUOUS
 10
12.27271
 20
54.98241
  0
VERTEX
  8
PTS2DXF
  6
CONTINUOUS
 10
12.27758
 20
54.98195
  0
VERTEX
  8
PTS2DXF
  6
CONTINUOUS
 10
12.28509
 20
54.97694
  0
VERTEX
  8
PTS2DXF
  6
CONTINUOUS
 10
12.2757
 20
54.96282
  0
VERTEX
  8
PTS2DXF
  6
CONTINUOUS
 10
12.27273
 20
54.96135
  0
VERTEX
  8
PTS2DXF
  6
CONTINUOUS
 10
12.27735
 20
54.96023
  0
VERTEX
  8
PTS2DXF
  6
CONTINUOUS
 10
12.2873
 20
54.96346
  0
VERTEX
  8
PTS2DXF
  6
CONTINUOUS
 10
12.29447
 20
54.9636
  0
VERTEX
  8
PTS2DXF
  6
CONTINUOUS
 10
12.30482
 20
54.97276
  0
VERTEX
  8
PTS2DXF
  6
CONTINUOUS
 10
12.31618
 20
54.97753
  0
VERTEX
  8
PTS2DXF
  6
CONTINUOUS
 10
12.33936
 20
54.98154
  0
VERTEX
  8
PTS2DXF
  6
CONTINUOUS
 10
12.35458
 20
54.98247
  0
VERTEX
  8
PTS2DXF
  6
CONTINUOUS
 10
12.3564
 20
54.98422
  0
VERTEX
  8
PTS2DXF
  6
CONTINUOUS
 10
12.35364
 20
54.98497
  0
VERTEX
  8
PTS2DXF
  6
CONTINUOUS
 10
12.35142
 20
54.98558
  0
VERTEX
  8
PTS2DXF
  6
CONTINUOUS
 10
12.3196
 20
54.98241
  0
VERTEX
  8
PTS2DXF
  6
CONTINUOUS
 10
12.30904
 20
54.98471
  0
VERTEX
  8
PTS2DXF
  6
CONTINUOUS
 10
12.30753
 20
54.98877
  0
VERTEX
  8
PTS2DXF
  6
CONTINUOUS
 10
12.3031
 20
54.9891
  0
VERTEX
  8
PTS2DXF
  6
CONTINUOUS
 10
12.30112
 20
54.98556
  0
VERTEX
  8
PTS2DXF
  6
CONTINUOUS
 10
12.29194
 20
54.9817
  0
VERTEX
  8
PTS2DXF
  6
CONTINUOUS
 10
12.28562
 20
54.98383
  0
VERTEX
  8
PTS2DXF
  6
CONTINUOUS
 10
12.28413
 20
54.98763
  0
VERTEX
  8
PTS2DXF
  6
CONTINUOUS
 10
12.27302
 20
54.99681
  0
VERTEX
  8
PTS2DXF
  6
CONTINUOUS
 10
12.27366
 20
55
  0
VERTEX
  8
PTS2DXF
  6
CONTINUOUS
 10
12.27416
 20
55.00249
  0
VERTEX
  8
PTS2DXF
  6
CONTINUOUS
 10
12.28012
 20
55.00543
  0
VERTEX
  8
PTS2DXF
  6
CONTINUOUS
 10
12.28816
 20
55.01515
  0
VERTEX
  8
PTS2DXF
  6
CONTINUOUS
 10
12.2893
 20
55.02082
  0
VERTEX
  8
PTS2DXF
  6
CONTINUOUS
 10
12.28249
 20
55.02044
  0
VERTEX
  8
PTS2DXF
  6
CONTINUOUS
 10
12.27228
 20
55.03049
  0
VERTEX
  8
PTS2DXF
  6
CONTINUOUS
 10
12.26494
 20
55.03219
  0
VERTEX
  8
PTS2DXF
  6
CONTINUOUS
 10
12.25826
 20
55.03889
  0
VERTEX
  8
PTS2DXF
  6
CONTINUOUS
 10
12.24919
 20
55.03951
  0
VERTEX
  8
PTS2DXF
  6
CONTINUOUS
 10
12.24734
 20
55.03753
  0
VERTEX
  8
PTS2DXF
  6
CONTINUOUS
 10
12.24053
 20
55.03714
  0
VERTEX
  8
PTS2DXF
  6
CONTINUOUS
 10
12.2376
 20
55.0391
  0
VERTEX
  8
PTS2DXF
  6
CONTINUOUS
 10
12.23655
 20
55.04624
  0
VERTEX
  8
PTS2DXF
  6
CONTINUOUS
 10
12.24271
 20
55.05078
  0
VERTEX
  8
PTS2DXF
  6
CONTINUOUS
 10
12.25371
 20
55.05515
  0
VERTEX
  8
PTS2DXF
  6
CONTINUOUS
 10
12.26035
 20
55.05779
  0
VERTEX
  8
PTS2DXF
  6
CONTINUOUS
 10
12.2668
 20
55.05843
  0
VERTEX
  8
PTS2DXF
  6
CONTINUOUS
 10
12.2739
 20
55.05491
  0
VERTEX
  8
PTS2DXF
  6
CONTINUOUS
 10
12.28574
 20
55.03906
  0
VERTEX
  8
PTS2DXF
  6
CONTINUOUS
 10
12.2939
 20
55.03458
  0
VERTEX
  8
PTS2DXF
  6
CONTINUOUS
 10
12.31488
 20
55.02771
  0
VERTEX
  8
PTS2DXF
  6
CONTINUOUS
 10
12.32708
 20
55.02672
  0
VERTEX
  8
PTS2DXF
  6
CONTINUOUS
 10
12.34515
 20
55.02798
  0
VERTEX
  8
PTS2DXF
  6
CONTINUOUS
 10
12.36443
 20
55.02644
  0
VERTEX
  8
PTS2DXF
  6
CONTINUOUS
 10
12.37688
 20
55.02726
  0
VERTEX
  8
PTS2DXF
  6
CONTINUOUS
 10
12.40255
 20
55.02589
  0
VERTEX
  8
PTS2DXF
  6
CONTINUOUS
 10
12.42521
 20
55.02281
  0
VERTEX
  8
PTS2DXF
  6
CONTINUOUS
 10
12.43975
 20
55.02444
  0
VERTEX
  8
PTS2DXF
  6
CONTINUOUS
 10
12.44226
 20
55.02441
  0
VERTEX
  8
PTS2DXF
  6
CONTINUOUS
 10
12.45444
 20
55.02424
  0
VERTEX
  8
PTS2DXF
  6
CONTINUOUS
 10
12.46658
 20
55.02278
  0
VERTEX
  8
PTS2DXF
  6
CONTINUOUS
 10
12.48596
 20
55.01618
  0
VERTEX
  8
PTS2DXF
  6
CONTINUOUS
 10
12.5008
 20
55.01413
  0
VERTEX
  8
PTS2DXF
  6
CONTINUOUS
 10
12.52346
 20
55.00829
  0
VERTEX
  8
PTS2DXF
  6
CONTINUOUS
 10
12.52919
 20
55.00368
  0
VERTEX
  8
PTS2DXF
  6
CONTINUOUS
 10
12.53153
 20
55
  0
SEQEND
  0
POLYLINE
100
AcDb2dPolyline
 66
1
  8
PTS2DXF
  6
CONTINUOUS
 10
0
 20
0
 70
0
  0
VERTEX
  8
PTS2DXF
  6
CONTINUOUS
 10
12.05657
 20
54.888
  0
VERTEX
  8
PTS2DXF
  6
CONTINUOUS
 10
12.06246
 20
54.88752
  0
VERTEX
  8
PTS2DXF
  6
CONTINUOUS
 10
12.07156
 20
54.89057
  0
VERTEX
  8
PTS2DXF
  6
CONTINUOUS
 10
12.0812
 20
54.89154
  0
VERTEX
  8
PTS2DXF
  6
CONTINUOUS
 10
12.09015
 20
54.89024
  0
VERTEX
  8
PTS2DXF
  6
CONTINUOUS
 10
12.09809
 20
54.88716
  0
VERTEX
  8
PTS2DXF
  6
CONTINUOUS
 10
12.12247
 20
54.88567
  0
VERTEX
  8
PTS2DXF
  6
CONTINUOUS
 10
12.12463
 20
54.88397
  0
VERTEX
  8
PTS2DXF
  6
CONTINUOUS
 10
12.12566
 20
54.8734
  0
VERTEX
  8
PTS2DXF
  6
CONTINUOUS
 10
12.1325
 20
54.86486
  0
VERTEX
  8
PTS2DXF
  6
CONTINUOUS
 10
12.14311
 20
54.85801
  0
VERTEX
  8
PTS2DXF
  6
CONTINUOUS
 10
12.14939
 20
54.85133
  0
VERTEX
  8
PTS2DXF
  6
CONTINUOUS
 10
12.15961
 20
54.84768
  0
VERTEX
  8
PTS2DXF
  6
CONTINUOUS
 10
12.16335
 20
54.83974
  0
VERTEX
  8
PTS2DXF
  6
CONTINUOUS
 10
12.17007
 20
54.8335
  0
VERTEX
  8
PTS2DXF
  6
CONTINUOUS
 10
12.16219
 20
54.82766
  0
VERTEX
  8
PTS2DXF
  6
CONTINUOUS
 10
12.14012
 20
54.8222
  0
VERTEX
  8
PTS2DXF
  6
CONTINUOUS
 10
12.13737
 20
54.82003
  0
VERTEX
  8
PTS2DXF
  6
CONTINUOUS
 10
12.13352
 20
54.81698
  0
VERTEX
  8
PTS2DXF
  6
CONTINUOUS
 10
12.1272
 20
54.80466
  0
VERTEX
  8
PTS2DXF
  6
CONTINUOUS
 10
12.12063
 20
54.79968
  0
VERTEX
  8
PTS2DXF
  6
CONTINUOUS
 10
12.10402
 20
54.79352
  0
VERTEX
  8
PTS2DXF
  6
CONTINUOUS
 10
12.08783
 20
54.79055
  0
VERTEX
  8
PTS2DXF
  6
CONTINUOUS
 10
12.05737
 20
54.76529
  0
VERTEX
  8
PTS2DXF
  6
CONTINUOUS
 10
12.04545
 20
54.75846
  0
VERTEX
  8
PTS2DXF
  6
CONTINUOUS
 10
12.02549
 20
54.7284
  0
VERTEX
  8
PTS2DXF
  6
CONTINUOUS
 10
12.01461
 20
54.72244
  0
VERTEX
  8
PTS2DXF
  6
CONTINUOUS
 10
11.98864
 20
54.7082
  0
VERTEX
  8
PTS2DXF
  6
CONTINUOUS
 10
11.98014
 20
54.70008
  0
VERTEX
  8
PTS2DXF
  6
CONTINUOUS
 10
11.97074
 20
54.68468
  0
VERTEX
  8
PTS2DXF
  6
CONTINUOUS
 10
11.96539
 20
54.66362
  0
VERTEX
  8
PTS2DXF
  6
CONTINUOUS
 10
11.9676
 20
54.62392
  0
VERTEX
  8
PTS2DXF
  6
CONTINUOUS
 10
11.97198
 20
54.60617
  0
VERTEX
  8
PTS2DXF
  6
CONTINUOUS
 10
11.97757
 20
54.58345
  0
VERTEX
  8
PTS2DXF
  6
CONTINUOUS
 10
11.97659
 20
54.56266
  0
VERTEX
  8
PTS2DXF
  6
CONTINUOUS
 10
11.97223
 20
54.56238
  0
VERTEX
  8
PTS2DXF
  6
CONTINUOUS
 10
11.94064
 20
54.57423
  0
VERTEX
  8
PTS2DXF
  6
CONTINUOUS
 10
11.92448
 20
54.57719
  0
VERTEX
  8
PTS2DXF
  6
CONTINUOUS
 10
11.92274
 20
54.57909
  0
VERTEX
  8
PTS2DXF
  6
CONTINUOUS
 10
11.92696
 20
54.58784
  0
VERTEX
  8
PTS2DXF
  6
CONTINUOUS
 10
11.92485
 20
54.5964
  0
VERTEX
  8
PTS2DXF
  6
CONTINUOUS
 10
11.91664
 20
54.60978
  0
VERTEX
  8
PTS2DXF
  6
CONTINUOUS
 10
11.90482
 20
54.61943
  0
VERTEX
  8
PTS2DXF
  6
CONTINUOUS
 10
11.90371
 20
54.62085
  0
VERTEX
  8
PTS2DXF
  6
CONTINUOUS
 10
11.89357
 20
54.63385
  0
VERTEX
  8
PTS2DXF
  6
CONTINUOUS
 10
11.87734
 20
54.64619
  0
VERTEX
  8
PTS2DXF
  6
CONTINUOUS
 10
11.87213
 20
54.65854
  0
VERTEX
  8
PTS2DXF
  6
CONTINUOUS
 10
11.87232
 20
54.66333
  0
VERTEX
  8
PTS2DXF
  6
CONTINUOUS
 10
11.88253
 20
54.6826
  0
VERTEX
  8
PTS2DXF
  6
CONTINUOUS
 10
11.88274
 20
54.69083
  0
VERTEX
  8
PTS2DXF
  6
CONTINUOUS
 10
11.8912
 20
54.69552
  0
VERTEX
  8
PTS2DXF
  6
CONTINUOUS
 10
11.91624
 20
54.71646
  0
VERTEX
  8
PTS2DXF
  6
CONTINUOUS
 10
11.91242
 20
54.72074
  0
VERTEX
  8
PTS2DXF
  6
CONTINUOUS
 10
11.90328
 20
54.7202
  0
VERTEX
  8
PTS2DXF
  6
CONTINUOUS
 10
11.87771
 20
54.72742
  0
VERTEX
  8
PTS2DXF
  6
CONTINUOUS
 10
11.87411
 20
54.73032
  0
VERTEX
  8
PTS2DXF
  6
CONTINUOUS
 10
11.87907
 20
54.73538
  0
VERTEX
  8
PTS2DXF
  6
CONTINUOUS
 10
11.88012
 20
54.74083
  0
VERTEX
  8
PTS2DXF
  6
CONTINUOUS
 10
11.88887
 20
54.7478
  0
VERTEX
  8
PTS2DXF
  6
CONTINUOUS
 10
11.88841
 20
54.75056
  0
VERTEX
  8
PTS2DXF
  6
CONTINUOUS
 10
11.87452
 20
54.75982
  0
VERTEX
  8
PTS2DXF
  6
CONTINUOUS
 10
11.86753
 20
54.77063
  0
VERTEX
  8
PTS2DXF
  6
CONTINUOUS
 10
11.86772
 20
54.77543
  0
VERTEX
  8
PTS2DXF
  6
CONTINUOUS
 10
11.85419
 20
54.78445
  0
VERTEX
  8
PTS2DXF
  6
CONTINUOUS
 10
11.84386
 20
54.78726
  0
VERTEX
  8
PTS2DXF
  6
CONTINUOUS
 10
11.84232
 20
54.78768
  0
VERTEX
  8
PTS2DXF
  6
CONTINUOUS
 10
11.83803
 20
54.79472
  0
VERTEX
  8
PTS2DXF
  6
CONTINUOUS
 10
11.834
 20
54.7974
  0
VERTEX
  8
PTS2DXF
  6
CONTINUOUS
 10
11.8184
 20
54.79917
  0
VERTEX
  8
PTS2DXF
  6
CONTINUOUS
 10
11.79879
 20
54.81049
  0
VERTEX
  8
PTS2DXF
  6
CONTINUOUS
 10
11.8019
 20
54.81334
  0
VERTEX
  8
PTS2DXF
  6
CONTINUOUS
 10
11.81015
 20
54.81621
  0
VERTEX
  8
PTS2DXF
  6
CONTINUOUS
 10
11.81934
 20
54.82682
  0
VERTEX
  8
PTS2DXF
  6
CONTINUOUS
 10
11.81871
 20
54.83142
  0
VERTEX
  8
PTS2DXF
  6
CONTINUOUS
 10
11.81144
 20
54.83355
  0
VERTEX
  8
PTS2DXF
  6
CONTINUOUS
 10
11.80901
 20
54.83639
  0
VERTEX
  8
PTS2DXF
  6
CONTINUOUS
 10
11.81274
 20
54.84105
  0
VERTEX
  8
PTS2DXF
  6
CONTINUOUS
 10
11.80816
 20
54.84581
  0
VERTEX
  8
PTS2DXF
  6
CONTINUOUS
 10
11.79611
 20
54.84766
  0
VERTEX
  8
PTS2DXF
  6
CONTINUOUS
 10
11.78804
 20
54.85302
  0
VERTEX
  8
PTS2DXF
  6
CONTINUOUS
 10
11.75867
 20
54.85579
  0
VERTEX
  8
PTS2DXF
  6
CONTINUOUS
 10
11.76229
 20
54.85954
  0
VERTEX
  8
PTS2DXF
  6
CONTINUOUS
 10
11.75652
 20
54.86753
  0
VERTEX
  8
PTS2DXF
  6
CONTINUOUS
 10
11.7548
 20
54.8699
  0
VERTEX
  8
PTS2DXF
  6
CONTINUOUS
 10
11.76101
 20
54.87881
  0
VERTEX
  8
PTS2DXF
  6
CONTINUOUS
 10
11.75863
 20
54.8821
  0
VERTEX
  8
PTS2DXF
  6
CONTINUOUS
 10
11.74474
 20
54.8886
  0
VERTEX
  8
PTS2DXF
  6
CONTINUOUS
 10
11.74179
 20
54.89375
  0
VERTEX
  8
PTS2DXF
  6
CONTINUOUS
 10
11.74457
 20
54.90051
  0
VERTEX
  8
PTS2DXF
  6
CONTINUOUS
 10
11.7558
 20
54.9083
  0
VERTEX
  8
PTS2DXF
  6
CONTINUOUS
 10
11.75921
 20
54.91365
  0
VERTEX
  8
PTS2DXF
  6
CONTINUOUS
 10
11.75948
 20
54.91593
  0
VERTEX
  8
PTS2DXF
  6
CONTINUOUS
 10
11.75148
 20
54.9254
  0
VERTEX
  8
PTS2DXF
  6
CONTINUOUS
 10
11.74665
 20
54.92811
  0
VERTEX
  8
PTS2DXF
  6
CONTINUOUS
 10
11.71098
 20
54.92837
  0
VERTEX
  8
PTS2DXF
  6
CONTINUOUS
 10
11.7062
 20
54.93153
  0
VERTEX
  8
PTS2DXF
  6
CONTINUOUS
 10
11.71455
 20
54.93509
  0
VERTEX
  8
PTS2DXF
  6
CONTINUOUS
 10
11.72213
 20
54.94212
  0
VERTEX
  8
PTS2DXF
  6
CONTINUOUS
 10
11.73534
 20
54.93977
  0
VERTEX
  8
PTS2DXF
  6
CONTINUOUS
 10
11.7423
 20
54.94498
  0
VERTEX
  8
PTS2DXF
  6
CONTINUOUS
 10
11.7408
 20
54.94543
  0
VERTEX
  8
PTS2DXF
  6
CONTINUOUS
 10
11.73157
 20
54.94815
  0
VERTEX
  8
PTS2DXF
  6
CONTINUOUS
 10
11.73577
 20
54.95348
  0
VERTEX
  8
PTS2DXF
  6
CONTINUOUS
 10
11.74548
 20
54.95835
  0
VERTEX
  8
PTS2DXF
  6
CONTINUOUS
 10
11.75444
 20
54.96029
  0
VERTEX
  8
PTS2DXF
  6
CONTINUOUS
 10
11.76629
 20
54.95982
  0
VERTEX
  8
PTS2DXF
  6
CONTINUOUS
 10
11.77402
 20
54.96134
  0
VERTEX
  8
PTS2DXF
  6
CONTINUOUS
 10
11.79674
 20
54.94556
  0
VERTEX
  8
PTS2DXF
  6
CONTINUOUS
 10
11.80541
 20
54.93515
  0
VERTEX
  8
PTS2DXF
  6
CONTINUOUS
 10
11.81865
 20
54.93645
  0
VERTEX
  8
PTS2DXF
  6
CONTINUOUS
 10
11.82165
 20
54.94159
  0
VERTEX
  8
PTS2DXF
  6
CONTINUOUS
 10
11.82743
 20
54.94342
  0
VERTEX
  8
PTS2DXF
  6
CONTINUOUS
 10
11.83391
 20
54.95437
  0
VERTEX
  8
PTS2DXF
  6
CONTINUOUS
 10
11.83254
 20
54.95946
  0
VERTEX
  8
PTS2DXF
  6
CONTINUOUS
 10
11.82511
 20
54.96365
  0
VERTEX
  8
PTS2DXF
  6
CONTINUOUS
 10
11.82617
 20
54.96589
  0
VERTEX
  8
PTS2DXF
  6
CONTINUOUS
 10
11.83136
 20
54.96614
  0
VERTEX
  8
PTS2DXF
  6
CONTINUOUS
 10
11.84004
 20
54.96236
  0
VERTEX
  8
PTS2DXF
  6
CONTINUOUS
 10
11.8442
 20
54.95739
  0
VERTEX
  8
PTS2DXF
  6
CONTINUOUS
 10
11.84481
 20
54.9573
  0
VERTEX
  8
PTS2DXF
  6
CONTINUOUS
 10
11.85278
 20
54.95613
  0
VERTEX
  8
PTS2DXF
  6
CONTINUOUS
 10
11.85706
 20
54.9587
  0
VERTEX
  8
PTS2DXF
  6
CONTINUOUS
 10
11.85936
 20
54.95472
  0
VERTEX
  8
PTS2DXF
  6
CONTINUOUS
 10
11.88169
 20
54.9426
  0
VERTEX
  8
PTS2DXF
  6
CONTINUOUS
 10
11.87685
 20
54.93868
  0
VERTEX
  8
PTS2DXF
  6
CONTINUOUS
 10
11.88482
 20
54.9324
  0
VERTEX
  8
PTS2DXF
  6
CONTINUOUS
 10
11.89348
 20
54.92862
  0
VERTEX
  8
PTS2DXF
  6
CONTINUOUS
 10
11.89064
 20
54.92485
  0
VERTEX
  8
PTS2DXF
  6
CONTINUOUS
 10
11.89603
 20
54.92028
  0
VERTEX
  8
PTS2DXF
  6
CONTINUOUS
 10
11.90745
 20
54.91638
  0
VERTEX
  8
PTS2DXF
  6
CONTINUOUS
 10
11.92202
 20
54.91555
  0
VERTEX
  8
PTS2DXF
  6
CONTINUOUS
 10
11.92796
 20
54.92515
  0
VERTEX
  8
PTS2DXF
  6
CONTINUOUS
 10
11.92976
 20
54.93011
  0
VERTEX
  8
PTS2DXF
  6
CONTINUOUS
 10
11.92781
 20
54.93682
  0
VERTEX
  8
PTS2DXF
  6
CONTINUOUS
 10
11.93083
 20
54.93876
  0
VERTEX
  8
PTS2DXF
  6
CONTINUOUS
 10
11.93585
 20
54.93444
  0
VERTEX
  8
PTS2DXF
  6
CONTINUOUS
 10
11.94265
 20
54.93484
  0
VERTEX
  8
PTS2DXF
  6
CONTINUOUS
 10
11.95299
 20
54.93831
  0
VERTEX
  8
PTS2DXF
  6
CONTINUOUS
 10
11.96334
 20
54.93857
  0
VERTEX
  8
PTS2DXF
  6
CONTINUOUS
 10
11.96986
 20
54.93701
  0
VERTEX
  8
PTS2DXF
  6
CONTINUOUS
 10
11.97837
 20
54.93497
  0
VERTEX
  8
PTS2DXF
  6
CONTINUOUS
 10
11.985
 20
54.93081
  0
VERTEX
  8
PTS2DXF
  6
CONTINUOUS
 10
11.98127
 20
54.92638
  0
VERTEX
  8
PTS2DXF
  6
CONTINUOUS
 10
11.98386
 20
54.9217
  0
VERTEX
  8
PTS2DXF
  6
CONTINUOUS
 10
11.98234
 20
54.91581
  0
VERTEX
  8
PTS2DXF
  6
CONTINUOUS
 10
11.99194
 20
54.90695
  0
VERTEX
  8
PTS2DXF
  6
CONTINUOUS
 10
11.98983
 20
54.90269
  0
VERTEX
  8
PTS2DXF
  6
CONTINUOUS
 10
11.99338
 20
54.89934
  0
VERTEX
  8
PTS2DXF
  6
CONTINUOUS
 10
12.0241
 20
54.89142
  0
VERTEX
  8
PTS2DXF
  6
CONTINUOUS
 10
12.03579
 20
54.88979
  0
VERTEX
  8
PTS2DXF
  6
CONTINUOUS
 10
12.04664
 20
54.89093
  0
VERTEX
  8
PTS2DXF
  6
CONTINUOUS
 10
12.05657
 20
54.888
  0
SEQEND
  0
POLYLINE
100
AcDb2dPolyline
 66
1
  8
PTS2DXF
  6
CONTINUOUS
 10
0
 20
0
 70
0
  0
VERTEX
  8
PTS2DXF
  6
CONTINUOUS
 10
11.15895
 20
54.81781
  0
VERTEX
  8
PTS2DXF
  6
CONTINUOUS
 10
11.15732
 20
54.82107
  0
VERTEX
  8
PTS2DXF
  6
CONTINUOUS
 10
11.14806
 20
54.82711
  0
VERTEX
  8
PTS2DXF
  6
CONTINUOUS
 10
11.12779
 20
54.83376
  0
VERTEX
  8
PTS2DXF
  6
CONTINUOUS
 10
11.11897
 20
54.83269
  0
VERTEX
  8
PTS2DXF
  6
CONTINUOUS
 10
11.10618
 20
54.83519
  0
VERTEX
  8
PTS2DXF
  6
CONTINUOUS
 10
11.10052
 20
54.83401
  0
VERTEX
  8
PTS2DXF
  6
CONTINUOUS
 10
11.09466
 20
54.82676
  0
VERTEX
  8
PTS2DXF
  6
CONTINUOUS
 10
11.09115
 20
54.83137
  0
VERTEX
  8
PTS2DXF
  6
CONTINUOUS
 10
11.0918
 20
54.83386
  0
VERTEX
  8
PTS2DXF
  6
CONTINUOUS
 10
11.0801
 20
54.83541
  0
VERTEX
  8
PTS2DXF
  6
CONTINUOUS
 10
11.08397
 20
54.83847
  0
VERTEX
  8
PTS2DXF
  6
CONTINUOUS
 10
11.08017
 20
54.84775
  0
VERTEX
  8
PTS2DXF
  6
CONTINUOUS
 10
11.07461
 20
54.84748
  0
VERTEX
  8
PTS2DXF
  6
CONTINUOUS
 10
11.07203
 20
54.8494
  0
VERTEX
  8
PTS2DXF
  6
CONTINUOUS
 10
11.07257
 20
54.85464
  0
VERTEX
  8
PTS2DXF
  6
CONTINUOUS
 10
11.06793
 20
54.85572
  0
VERTEX
  8
PTS2DXF
  6
CONTINUOUS
 10
11.05831
 20
54.86222
  0
VERTEX
  8
PTS2DXF
  6
CONTINUOUS
 10
11.06013
 20
54.86357
  0
VERTEX
  8
PTS2DXF
  6
CONTINUOUS
 10
11.06601
 20
54.8679
  0
VERTEX
  8
PTS2DXF
  6
CONTINUOUS
 10
11.05787
 20
54.86955
  0
VERTEX
  8
PTS2DXF
  6
CONTINUOUS
 10
11.05285
 20
54.86698
  0
VERTEX
  8
PTS2DXF
  6
CONTINUOUS
 10
11.04889
 20
54.86689
  0
VERTEX
  8
PTS2DXF
  6
CONTINUOUS
 10
11.04979
 20
54.87189
  0
VERTEX
  8
PTS2DXF
  6
CONTINUOUS
 10
11.04777
 20
54.87539
  0
VERTEX
  8
PTS2DXF
  6
CONTINUOUS
 10
11.04343
 20
54.87553
  0
VERTEX
  8
PTS2DXF
  6
CONTINUOUS
 10
11.03851
 20
54.86998
  0
VERTEX
  8
PTS2DXF
  6
CONTINUOUS
 10
11.0342
 20
54.87036
  0
VERTEX
  8
PTS2DXF
  6
CONTINUOUS
 10
11.03436
 20
54.87973
  0
VERTEX
  8
PTS2DXF
  6
CONTINUOUS
 10
11.03127
 20
54.88052
  0
VERTEX
  8
PTS2DXF
  6
CONTINUOUS
 10
11.02431
 20
54.87824
  0
VERTEX
  8
PTS2DXF
  6
CONTINUOUS
 10
11.02171
 20
54.87993
  0
VERTEX
  8
PTS2DXF
  6
CONTINUOUS
 10
11.02388
 20
54.8858
  0
VERTEX
  8
PTS2DXF
  6
CONTINUOUS
 10
11.01977
 20
54.88823
  0
VERTEX
  8
PTS2DXF
  6
CONTINUOUS
 10
11.02016
 20
54.8921
  0
VERTEX
  8
PTS2DXF
  6
CONTINUOUS
 10
11.03086
 20
54.91163
  0
VERTEX
  8
PTS2DXF
  6
CONTINUOUS
 10
11.03613
 20
54.91671
  0
VERTEX
  8
PTS2DXF
  6
CONTINUOUS
 10
11.05608
 20
54.92197
  0
VERTEX
  8
PTS2DXF
  6
CONTINUOUS
 10
11.0576
 20
54.92513
  0
VERTEX
  8
PTS2DXF
  6
CONTINUOUS
 10
11.07012
 20
54.93133
  0
VERTEX
  8
PTS2DXF
  6
CONTINUOUS
 10
11.07345
 20
54.9367
  0
VERTEX
  8
PTS2DXF
  6
CONTINUOUS
 10
11.08777
 20
54.94101
  0
VERTEX
  8
PTS2DXF
  6
CONTINUOUS
 10
11.0899
 20
54.93865
  0
VERTEX
  8
PTS2DXF
  6
CONTINUOUS
 10
11.09383
 20
54.93829
  0
VERTEX
  8
PTS2DXF
  6
CONTINUOUS
 10
11.10201
 20
54.94075
  0
VERTEX
  8
PTS2DXF
  6
CONTINUOUS
 10
11.11547
 20
54.93663
  0
VERTEX
  8
PTS2DXF
  6
CONTINUOUS
 10
11.12162
 20
54.93093
  0
VERTEX
  8
PTS2DXF
  6
CONTINUOUS
 10
11.12425
 20
54.93335
  0
VERTEX
  8
PTS2DXF
  6
CONTINUOUS
 10
11.12096
 20
54.93987
  0
VERTEX
  8
PTS2DXF
  6
CONTINUOUS
 10
11.11215
 20
54.94292
  0
VERTEX
  8
PTS2DXF
  6
CONTINUOUS
 10
11.11771
 20
54.94684
  0
VERTEX
  8
PTS2DXF
  6
CONTINUOUS
 10
11.12132
 20
54.94717
  0
VERTEX
  8
PTS2DXF
  6
CONTINUOUS
 10
11.12731
 20
54.94376
  0
VERTEX
  8
PTS2DXF
  6
CONTINUOUS
 10
11.13203
 20
54.94337
  0
VERTEX
  8
PTS2DXF
  6
CONTINUOUS
 10
11.13353
 20
54.95018
  0
VERTEX
  8
PTS2DXF
  6
CONTINUOUS
 10
11.13716
 20
54.95074
  0
VERTEX
  8
PTS2DXF
  6
CONTINUOUS
 10
11.14122
 20
54.94786
  0
VERTEX
  8
PTS2DXF
  6
CONTINUOUS
 10
11.14724
 20
54.94856
  0
VERTEX
  8
PTS2DXF
  6
CONTINUOUS
 10
11.16142
 20
54.95515
  0
VERTEX
  8
PTS2DXF
  6
CONTINUOUS
 10
11.1696
 20
54.95373
  0
VERTEX
  8
PTS2DXF
  6
CONTINUOUS
 10
11.17926
 20
54.95888
  0
VERTEX
  8
PTS2DXF
  6
CONTINUOUS
 10
11.2151
 20
54.95773
  0
VERTEX
  8
PTS2DXF
  6
CONTINUOUS
 10
11.24885
 20
54.95665
  0
VERTEX
  8
PTS2DXF
  6
CONTINUOUS
 10
11.26526
 20
54.95424
  0
VERTEX
  8
PTS2DXF
  6
CONTINUOUS
 10
11.29735
 20
54.94279
  0
VERTEX
  8
PTS2DXF
  6
CONTINUOUS
 10
11.32058
 20
54.92297
  0
VERTEX
  8
PTS2DXF
  6
CONTINUOUS
 10
11.34297
 20
54.92102
  0
VERTEX
  8
PTS2DXF
  6
CONTINUOUS
 10
11.35417
 20
54.91832
  0
VERTEX
  8
PTS2DXF
  6
CONTINUOUS
 10
11.36014
 20
54.9149
  0
VERTEX
  8
PTS2DXF
  6
CONTINUOUS
 10
11.35863
 20
54.91198
  0
VERTEX
  8
PTS2DXF
  6
CONTINUOUS
 10
11.36518
 20
54.90305
  0
VERTEX
  8
PTS2DXF
  6
CONTINUOUS
 10
11.36288
 20
54.89651
  0
VERTEX
  8
PTS2DXF
  6
CONTINUOUS
 10
11.37003
 20
54.89174
  0
VERTEX
  8
PTS2DXF
  6
CONTINUOUS
 10
11.38318
 20
54.88295
  0
VERTEX
  8
PTS2DXF
  6
CONTINUOUS
 10
11.39521
 20
54.88068
  0
VERTEX
  8
PTS2DXF
  6
CONTINUOUS
 10
11.40105
 20
54.87612
  0
VERTEX
  8
PTS2DXF
  6
CONTINUOUS
 10
11.4098
 20
54.87648
  0
VERTEX
  8
PTS2DXF
  6
CONTINUOUS
 10
11.42021
 20
54.87038
  0
VERTEX
  8
PTS2DXF
  6
CONTINUOUS
 10
11.43239
 20
54.86947
  0
VERTEX
  8
PTS2DXF
  6
CONTINUOUS
 10
11.43337
 20
54.86761
  0
VERTEX
  8
PTS2DXF
  6
CONTINUOUS
 10
11.42722
 20
54.86212
  0
VERTEX
  8
PTS2DXF
  6
CONTINUOUS
 10
11.43497
 20
54.86068
  0
VERTEX
  8
PTS2DXF
  6
CONTINUOUS
 10
11.43764
 20
54.86333
  0
VERTEX
  8
PTS2DXF
  6
CONTINUOUS
 10
11.44198
 20
54.86317
  0
VERTEX
  8
PTS2DXF
  6
CONTINUOUS
 10
11.44539
 20
54.86533
  0
VERTEX
  8
PTS2DXF
  6
CONTINUOUS
 10
11.46172
 20
54.86266
  0
VERTEX
  8
PTS2DXF
  6
CONTINUOUS
 10
11.46962
 20
54.85894
  0
VERTEX
  8
PTS2DXF
  6
CONTINUOUS
 10
11.47047
 20
54.85593
  0
VERTEX
  8
PTS2DXF
  6
CONTINUOUS
 10
11.46717
 20
54.85125
  0
VERTEX
  8
PTS2DXF
  6
CONTINUOUS
 10
11.46584
 20
54.84283
  0
VERTEX
  8
PTS2DXF
  6
CONTINUOUS
 10
11.46942
 20
54.8395
  0
VERTEX
  8
PTS2DXF
  6
CONTINUOUS
 10
11.47334
 20
54.83912
  0
VERTEX
  8
PTS2DXF
  6
CONTINUOUS
 10
11.47759
 20
54.84171
  0
VERTEX
  8
PTS2DXF
  6
CONTINUOUS
 10
11.49178
 20
54.83775
  0
VERTEX
  8
PTS2DXF
  6
CONTINUOUS
 10
11.49111
 20
54.83525
  0
VERTEX
  8
PTS2DXF
  6
CONTINUOUS
 10
11.49579
 20
54.83119
  0
VERTEX
  8
PTS2DXF
  6
CONTINUOUS
 10
11.50609
 20
54.83126
  0
VERTEX
  8
PTS2DXF
  6
CONTINUOUS
 10
11.51819
 20
54.83332
  0
VERTEX
  8
PTS2DXF
  6
CONTINUOUS
 10
11.54215
 20
54.82829
  0
VERTEX
  8
PTS2DXF
  6
CONTINUOUS
 10
11.55644
 20
54.82866
  0
VERTEX
  8
PTS2DXF
  6
CONTINUOUS
 10
11.56306
 20
54.82429
  0
VERTEX
  8
PTS2DXF
  6
CONTINUOUS
 10
11.57831
 20
54.82622
  0
VERTEX
  8
PTS2DXF
  6
CONTINUOUS
 10
11.59641
 20
54.8253
  0
VERTEX
  8
PTS2DXF
  6
CONTINUOUS
 10
11.60909
 20
54.8152
  0
VERTEX
  8
PTS2DXF
  6
CONTINUOUS
 10
11.61804
 20
54.81394
  0
VERTEX
  8
PTS2DXF
  6
CONTINUOUS
 10
11.59638
 20
54.8285
  0
VERTEX
  8
PTS2DXF
  6
CONTINUOUS
 10
11.58697
 20
54.83275
  0
VERTEX
  8
PTS2DXF
  6
CONTINUOUS
 10
11.5787
 20
54.83307
  0
VERTEX
  8
PTS2DXF
  6
CONTINUOUS
 10
11.57531
 20
54.83457
  0
VERTEX
  8
PTS2DXF
  6
CONTINUOUS
 10
11.5716
 20
54.84021
  0
VERTEX
  8
PTS2DXF
  6
CONTINUOUS
 10
11.56658
 20
54.84131
  0
VERTEX
  8
PTS2DXF
  6
CONTINUOUS
 10
11.5635
 20
54.84555
  0
VERTEX
  8
PTS2DXF
  6
CONTINUOUS
 10
11.56544
 20
54.85211
  0
VERTEX
  8
PTS2DXF
  6
CONTINUOUS
 10
11.57246
 20
54.85115
  0
VERTEX
  8
PTS2DXF
  6
CONTINUOUS
 10
11.58215
 20
54.85627
  0
VERTEX
  8
PTS2DXF
  6
CONTINUOUS
 10
11.58614
 20
54.85658
  0
VERTEX
  8
PTS2DXF
  6
CONTINUOUS
 10
11.60086
 20
54.85029
  0
VERTEX
  8
PTS2DXF
  6
CONTINUOUS
 10
11.60177
 20
54.85012
  0
VERTEX
  8
PTS2DXF
  6
CONTINUOUS
 10
11.61402
 20
54.84773
  0
VERTEX
  8
PTS2DXF
  6
CONTINUOUS
 10
11.62908
 20
54.85126
  0
VERTEX
  8
PTS2DXF
  6
CONTINUOUS
 10
11.63764
 20
54.85688
  0
VERTEX
  8
PTS2DXF
  6
CONTINUOUS
 10
11.64558
 20
54.85703
  0
VERTEX
  8
PTS2DXF
  6
CONTINUOUS
 10
11.65244
 20
54.85471
  0
VERTEX
  8
PTS2DXF
  6
CONTINUOUS
 10
11.65586
 20
54.85686
  0
VERTEX
  8
PTS2DXF
  6
CONTINUOUS
 10
11.65383
 20
54.85991
  0
VERTEX
  8
PTS2DXF
  6
CONTINUOUS
 10
11.65531
 20
54.86237
  0
VERTEX
  8
PTS2DXF
  6
CONTINUOUS
 10
11.64449
 20
54.87149
  0
VERTEX
  8
PTS2DXF
  6
CONTINUOUS
 10
11.6512
 20
54.88495
  0
VERTEX
  8
PTS2DXF
  6
CONTINUOUS
 10
11.63856
 20
54.89894
  0
VERTEX
  8
PTS2DXF
  6
CONTINUOUS
 10
11.63932
 20
54.90211
  0
VERTEX
  8
PTS2DXF
  6
CONTINUOUS
 10
11.66281
 20
54.8996
  0
VERTEX
  8
PTS2DXF
  6
CONTINUOUS
 10
11.66751
 20
54.89576
  0
VERTEX
  8
PTS2DXF
  6
CONTINUOUS
 10
11.67414
 20
54.89481
  0
VERTEX
  8
PTS2DXF
  6
CONTINUOUS
 10
11.67826
 20
54.88939
  0
VERTEX
  8
PTS2DXF
  6
CONTINUOUS
 10
11.69366
 20
54.88322
  0
VERTEX
  8
PTS2DXF
  6
CONTINUOUS
 10
11.72253
 20
54.87164
  0
VERTEX
  8
PTS2DXF
  6
CONTINUOUS
 10
11.74312
 20
54.87494
  0
VERTEX
  8
PTS2DXF
  6
CONTINUOUS
 10
11.74662
 20
54.87434
  0
VERTEX
  8
PTS2DXF
  6
CONTINUOUS
 10
11.74892
 20
54.87036
  0
VERTEX
  8
PTS2DXF
  6
CONTINUOUS
 10
11.73884
 20
54.85886
  0
VERTEX
  8
PTS2DXF
  6
CONTINUOUS
 10
11.74611
 20
54.84668
  0
VERTEX
  8
PTS2DXF
  6
CONTINUOUS
 10
11.75667
 20
54.83894
  0
VERTEX
  8
PTS2DXF
  6
CONTINUOUS
 10
11.76301
 20
54.83891
  0
VERTEX
  8
PTS2DXF
  6
CONTINUOUS
 10
11.78423
 20
54.83097
  0
VERTEX
  8
PTS2DXF
  6
CONTINUOUS
 10
11.791
 20
54.83139
  0
VERTEX
  8
PTS2DXF
  6
CONTINUOUS
 10
11.79264
 20
54.82858
  0
VERTEX
  8
PTS2DXF
  6
CONTINUOUS
 10
11.78405
 20
54.81954
  0
VERTEX
  8
PTS2DXF
  6
CONTINUOUS
 10
11.78578
 20
54.80757
  0
VERTEX
  8
PTS2DXF
  6
CONTINUOUS
 10
11.79024
 20
54.80527
  0
VERTEX
  8
PTS2DXF
  6
CONTINUOUS
 10
11.80255
 20
54.79889
  0
VERTEX
  8
PTS2DXF
  6
CONTINUOUS
 10
11.80405
 20
54.79494
  0
VERTEX
  8
PTS2DXF
  6
CONTINUOUS
 10
11.81383
 20
54.79409
  0
VERTEX
  8
PTS2DXF
  6
CONTINUOUS
 10
11.81558
 20
54.79219
  0
VERTEX
  8
PTS2DXF
  6
CONTINUOUS
 10
11.82568
 20
54.79064
  0
VERTEX
  8
PTS2DXF
  6
CONTINUOUS
 10
11.84063
 20
54.78019
  0
VERTEX
  8
PTS2DXF
  6
CONTINUOUS
 10
11.84794
 20
54.77853
  0
VERTEX
  8
PTS2DXF
  6
CONTINUOUS
 10
11.85944
 20
54.77234
  0
VERTEX
  8
PTS2DXF
  6
CONTINUOUS
 10
11.86213
 20
54.76513
  0
VERTEX
  8
PTS2DXF
  6
CONTINUOUS
 10
11.86096
 20
54.75877
  0
VERTEX
  8
PTS2DXF
  6
CONTINUOUS
 10
11.87008
 20
54.74925
  0
VERTEX
  8
PTS2DXF
  6
CONTINUOUS
 10
11.87039
 20
54.73871
  0
VERTEX
  8
PTS2DXF
  6
CONTINUOUS
 10
11.86809
 20
54.73606
  0
VERTEX
  8
PTS2DXF
  6
CONTINUOUS
 10
11.86116
 20
54.73428
  0
VERTEX
  8
PTS2DXF
  6
CONTINUOUS
 10
11.85136
 20
54.72827
  0
VERTEX
  8
PTS2DXF
  6
CONTINUOUS
 10
11.83744
 20
54.72746
  0
VERTEX
  8
PTS2DXF
  6
CONTINUOUS
 10
11.83134
 20
54.73251
  0
VERTEX
  8
PTS2DXF
  6
CONTINUOUS
 10
11.82146
 20
54.73246
  0
VERTEX
  8
PTS2DXF
  6
CONTINUOUS
 10
11.82355
 20
54.73008
  0
VERTEX
  8
PTS2DXF
  6
CONTINUOUS
 10
11.82115
 20
54.72331
  0
VERTEX
  8
PTS2DXF
  6
CONTINUOUS
 10
11.82728
 20
54.72169
  0
VERTEX
  8
PTS2DXF
  6
CONTINUOUS
 10
11.82779
 20
54.71938
  0
VERTEX
  8
PTS2DXF
  6
CONTINUOUS
 10
11.81694
 20
54.71776
  0
VERTEX
  8
PTS2DXF
  6
CONTINUOUS
 10
11.81142
 20
54.71455
  0
VERTEX
  8
PTS2DXF
  6
CONTINUOUS
 10
11.81489
 20
54.71052
  0
VERTEX
  8
PTS2DXF
  6
CONTINUOUS
 10
11.82022
 20
54.70893
  0
VERTEX
  8
PTS2DXF
  6
CONTINUOUS
 10
11.82141
 20
54.70568
  0
VERTEX
  8
PTS2DXF
  6
CONTINUOUS
 10
11.84796
 20
54.69682
  0
VERTEX
  8
PTS2DXF
  6
CONTINUOUS
 10
11.85477
 20
54.69769
  0
VERTEX
  8
PTS2DXF
  6
CONTINUOUS
 10
11.86345
 20
54.69436
  0
VERTEX
  8
PTS2DXF
  6
CONTINUOUS
 10
11.86188
 20
54.69122
  0
VERTEX
  8
PTS2DXF
  6
CONTINUOUS
 10
11.86408
 20
54.68656
  0
VERTEX
  8
PTS2DXF
  6
CONTINUOUS
 10
11.84693
 20
54.68497
  0
VERTEX
  8
PTS2DXF
  6
CONTINUOUS
 10
11.84456
 20
54.68362
  0
VERTEX
  8
PTS2DXF
  6
CONTINUOUS
 10
11.84354
 20
54.68304
  0
VERTEX
  8
PTS2DXF
  6
CONTINUOUS
 10
11.85542
 20
54.67684
  0
VERTEX
  8
PTS2DXF
  6
CONTINUOUS
 10
11.84853
 20
54.67529
  0
VERTEX
  8
PTS2DXF
  6
CONTINUOUS
 10
11.8454
 20
54.67221
  0
VERTEX
  8
PTS2DXF
  6
CONTINUOUS
 10
11.84885
 20
54.66818
  0
VERTEX
  8
PTS2DXF
  6
CONTINUOUS
 10
11.84163
 20
54.6671
  0
VERTEX
  8
PTS2DXF
  6
CONTINUOUS
 10
11.82588
 20
54.66064
  0
VERTEX
  8
PTS2DXF
  6
CONTINUOUS
 10
11.83308
 20
54.65829
  0
VERTEX
  8
PTS2DXF
  6
CONTINUOUS
 10
11.83847
 20
54.65395
  0
VERTEX
  8
PTS2DXF
  6
CONTINUOUS
 10
11.83266
 20
54.65144
  0
VERTEX
  8
PTS2DXF
  6
CONTINUOUS
 10
11.82458
 20
54.65314
  0
VERTEX
  8
PTS2DXF
  6
CONTINUOUS
 10
11.82202
 20
54.64821
  0
VERTEX
  8
PTS2DXF
  6
CONTINUOUS
 10
11.81594
 20
54.65006
  0
VERTEX
  8
PTS2DXF
  6
CONTINUOUS
 10
11.81146
 20
54.64887
  0
VERTEX
  8
PTS2DXF
  6
CONTINUOUS
 10
11.81145
 20
54.64544
  0
VERTEX
  8
PTS2DXF
  6
CONTINUOUS
 10
11.80467
 20
54.64479
  0
VERTEX
  8
PTS2DXF
  6
CONTINUOUS
 10
11.7923
 20
54.6501
  0
VERTEX
  8
PTS2DXF
  6
CONTINUOUS
 10
11.7654
 20
54.65255
  0
VERTEX
  8
PTS2DXF
  6
CONTINUOUS
 10
11.75702
 20
54.65495
  0
VERTEX
  8
PTS2DXF
  6
CONTINUOUS
 10
11.7449
 20
54.65245
  0
VERTEX
  8
PTS2DXF
  6
CONTINUOUS
 10
11.73711
 20
54.65322
  0
VERTEX
  8
PTS2DXF
  6
CONTINUOUS
 10
11.73189
 20
54.65572
  0
VERTEX
  8
PTS2DXF
  6
CONTINUOUS
 10
11.73553
 20
54.65742
  0
VERTEX
  8
PTS2DXF
  6
CONTINUOUS
 10
11.73731
 20
54.65825
  0
VERTEX
  8
PTS2DXF
  6
CONTINUOUS
 10
11.73416
 20
54.66501
  0
VERTEX
  8
PTS2DXF
  6
CONTINUOUS
 10
11.73079
 20
54.66652
  0
VERTEX
  8
PTS2DXF
  6
CONTINUOUS
 10
11.72566
 20
54.66649
  0
VERTEX
  8
PTS2DXF
  6
CONTINUOUS
 10
11.72293
 20
54.66339
  0
VERTEX
  8
PTS2DXF
  6
CONTINUOUS
 10
11.72656
 20
54.6573
  0
VERTEX
  8
PTS2DXF
  6
CONTINUOUS
 10
11.71509
 20
54.65364
  0
VERTEX
  8
PTS2DXF
  6
CONTINUOUS
 10
11.71128
 20
54.6547
  0
VERTEX
  8
PTS2DXF
  6
CONTINUOUS
 10
11.70557
 20
54.66317
  0
VERTEX
  8
PTS2DXF
  6
CONTINUOUS
 10
11.69132
 20
54.66602
  0
VERTEX
  8
PTS2DXF
  6
CONTINUOUS
 10
11.67517
 20
54.66276
  0
VERTEX
  8
PTS2DXF
  6
CONTINUOUS
 10
11.66866
 20
54.66782
  0
VERTEX
  8
PTS2DXF
  6
CONTINUOUS
 10
11.66309
 20
54.66392
  0
VERTEX
  8
PTS2DXF
  6
CONTINUOUS
 10
11.66583
 20
54.66038
  0
VERTEX
  8
PTS2DXF
  6
CONTINUOUS
 10
11.65712
 20
54.6507
  0
VERTEX
  8
PTS2DXF
  6
CONTINUOUS
 10
11.65903
 20
54.65695
  0
VERTEX
  8
PTS2DXF
  6
CONTINUOUS
 10
11.65723
 20
54.66095
  0
VERTEX
  8
PTS2DXF
  6
CONTINUOUS
 10
11.65186
 20
54.65887
  0
VERTEX
  8
PTS2DXF
  6
CONTINUOUS
 10
11.64792
 20
54.66223
  0
VERTEX
  8
PTS2DXF
  6
CONTINUOUS
 10
11.63196
 20
54.66399
  0
VERTEX
  8
PTS2DXF
  6
CONTINUOUS
 10
11.62882
 20
54.66068
  0
VERTEX
  8
PTS2DXF
  6
CONTINUOUS
 10
11.6179
 20
54.66
  0
VERTEX
  8
PTS2DXF
  6
CONTINUOUS
 10
11.61533
 20
54.65983
  0
VERTEX
  8
PTS2DXF
  6
CONTINUOUS
 10
11.60251
 20
54.66491
  0
VERTEX
  8
PTS2DXF
  6
CONTINUOUS
 10
11.59236
 20
54.66576
  0
VERTEX
  8
PTS2DXF
  6
CONTINUOUS
 10
11.58697
 20
54.66344
  0
VERTEX
  8
PTS2DXF
  6
CONTINUOUS
 10
11.59147
 20
54.66144
  0
VERTEX
  8
PTS2DXF
  6
CONTINUOUS
 10
11.59312
 20
54.65863
  0
VERTEX
  8
PTS2DXF
  6
CONTINUOUS
 10
11.56603
 20
54.65945
  0
VERTEX
  8
PTS2DXF
  6
CONTINUOUS
 10
11.56425
 20
54.65768
  0
VERTEX
  8
PTS2DXF
  6
CONTINUOUS
 10
11.57009
 20
54.65357
  0
VERTEX
  8
PTS2DXF
  6
CONTINUOUS
 10
11.55787
 20
54.65358
  0
VERTEX
  8
PTS2DXF
  6
CONTINUOUS
 10
11.55291
 20
54.65148
  0
VERTEX
  8
PTS2DXF
  6
CONTINUOUS
 10
11.55375
 20
54.64848
  0
VERTEX
  8
PTS2DXF
  6
CONTINUOUS
 10
11.54252
 20
54.63976
  0
VERTEX
  8
PTS2DXF
  6
CONTINUOUS
 10
11.52678
 20
54.6399
  0
VERTEX
  8
PTS2DXF
  6
CONTINUOUS
 10
11.52287
 20
54.63661
  0
VERTEX
  8
PTS2DXF
  6
CONTINUOUS
 10
11.51521
 20
54.63851
  0
VERTEX
  8
PTS2DXF
  6
CONTINUOUS
 10
11.50527
 20
54.63774
  0
VERTEX
  8
PTS2DXF
  6
CONTINUOUS
 10
11.47276
 20
54.61777
  0
VERTEX
  8
PTS2DXF
  6
CONTINUOUS
 10
11.46597
 20
54.6136
  0
VERTEX
  8
PTS2DXF
  6
CONTINUOUS
 10
11.49496
 20
54.60175
  0
VERTEX
  8
PTS2DXF
  6
CONTINUOUS
 10
11.50679
 20
54.60132
  0
VERTEX
  8
PTS2DXF
  6
CONTINUOUS
 10
11.51357
 20
54.59855
  0
VERTEX
  8
PTS2DXF
  6
CONTINUOUS
 10
11.5282
 20
54.59868
  0
VERTEX
  8
PTS2DXF
  6
CONTINUOUS
 10
11.53115
 20
54.59645
  0
VERTEX
  8
PTS2DXF
  6
CONTINUOUS
 10
11.52805
 20
54.59524
  0
VERTEX
  8
PTS2DXF
  6
CONTINUOUS
 10
11.49926
 20
54.59722
  0
VERTEX
  8
PTS2DXF
  6
CONTINUOUS
 10
11.4835
 20
54.60138
  0
VERTEX
  8
PTS2DXF
  6
CONTINUOUS
 10
11.47604
 20
54.60629
  0
VERTEX
  8
PTS2DXF
  6
CONTINUOUS
 10
11.46514
 20
54.60907
  0
VERTEX
  8
PTS2DXF
  6
CONTINUOUS
 10
11.45345
 20
54.6143
  0
VERTEX
  8
PTS2DXF
  6
CONTINUOUS
 10
11.42483
 20
54.62955
  0
VERTEX
  8
PTS2DXF
  6
CONTINUOUS
 10
11.4212
 20
54.63096
  0
VERTEX
  8
PTS2DXF
  6
CONTINUOUS
 10
11.38517
 20
54.64498
  0
VERTEX
  8
PTS2DXF
  6
CONTINUOUS
 10
11.37431
 20
54.64653
  0
VERTEX
  8
PTS2DXF
  6
CONTINUOUS
 10
11.3588
 20
54.65236
  0
VERTEX
  8
PTS2DXF
  6
CONTINUOUS
 10
11.34433
 20
54.66067
  0
VERTEX
  8
PTS2DXF
  6
CONTINUOUS
 10
11.32513
 20
54.66892
  0
VERTEX
  8
PTS2DXF
  6
CONTINUOUS
 10
11.30106
 20
54.68695
  0
VERTEX
  8
PTS2DXF
  6
CONTINUOUS
 10
11.29006
 20
54.69101
  0
VERTEX
  8
PTS2DXF
  6
CONTINUOUS
 10
11.2681
 20
54.70324
  0
VERTEX
  8
PTS2DXF
  6
CONTINUOUS
 10
11.25312
 20
54.70698
  0
VERTEX
  8
PTS2DXF
  6
CONTINUOUS
 10
11.23133
 20
54.70982
  0
VERTEX
  8
PTS2DXF
  6
CONTINUOUS
 10
11.20742
 20
54.71867
  0
VERTEX
  8
PTS2DXF
  6
CONTINUOUS
 10
11.19228
 20
54.72104
  0
VERTEX
  8
PTS2DXF
  6
CONTINUOUS
 10
11.11533
 20
54.73997
  0
VERTEX
  8
PTS2DXF
  6
CONTINUOUS
 10
11.09533
 20
54.74112
  0
VERTEX
  8
PTS2DXF
  6
CONTINUOUS
 10
11.05158
 20
54.75056
  0
VERTEX
  8
PTS2DXF
  6
CONTINUOUS
 10
11.04242
 20
54.75254
  0
VERTEX
  8
PTS2DXF
  6
CONTINUOUS
 10
11.033
 20
54.75698
  0
VERTEX
  8
PTS2DXF
  6
CONTINUOUS
 10
11.00996
 20
54.76348
  0
VERTEX
  8
PTS2DXF
  6
CONTINUOUS
 10
11.00114
 20
54.76995
  0
VERTEX
  8
PTS2DXF
  6
CONTINUOUS
 10
10.99313
 20
54.78074
  0
VERTEX
  8
PTS2DXF
  6
CONTINUOUS
 10
10.98086
 20
54.79196
  0
VERTEX
  8
PTS2DXF
  6
CONTINUOUS
 10
10.96376
 20
54.80295
  0
VERTEX
  8
PTS2DXF
  6
CONTINUOUS
 10
10.95783
 20
54.81836
  0
VERTEX
  8
PTS2DXF
  6
CONTINUOUS
 10
10.95908
 20
54.8315
  0
VERTEX
  8
PTS2DXF
  6
CONTINUOUS
 10
10.96009
 20
54.83375
  0
VERTEX
  8
PTS2DXF
  6
CONTINUOUS
 10
10.96882
 20
54.83804
  0
VERTEX
  8
PTS2DXF
  6
CONTINUOUS
 10
10.9837
 20
54.8325
  0
VERTEX
  8
PTS2DXF
  6
CONTINUOUS
 10
10.98386
 20
54.83068
  0
VERTEX
  8
PTS2DXF
  6
CONTINUOUS
 10
10.97839
 20
54.83085
  0
VERTEX
  8
PTS2DXF
  6
CONTINUOUS
 10
10.97083
 20
54.83431
  0
VERTEX
  8
PTS2DXF
  6
CONTINUOUS
 10
10.96756
 20
54.83327
  0
VERTEX
  8
PTS2DXF
  6
CONTINUOUS
 10
10.9729
 20
54.82738
  0
VERTEX
  8
PTS2DXF
  6
CONTINUOUS
 10
10.97035
 20
54.82563
  0
VERTEX
  8
PTS2DXF
  6
CONTINUOUS
 10
10.96607
 20
54.82624
  0
VERTEX
  8
PTS2DXF
  6
CONTINUOUS
 10
10.9625
 20
54.82026
  0
VERTEX
  8
PTS2DXF
  6
CONTINUOUS
 10
10.96915
 20
54.80753
  0
VERTEX
  8
PTS2DXF
  6
CONTINUOUS
 10
10.98233
 20
54.797
  0
VERTEX
  8
PTS2DXF
  6
CONTINUOUS
 10
10.98639
 20
54.80017
  0
VERTEX
  8
PTS2DXF
  6
CONTINUOUS
 10
10.98998
 20
54.80051
  0
VERTEX
  8
PTS2DXF
  6
CONTINUOUS
 10
10.9957
 20
54.79849
  0
VERTEX
  8
PTS2DXF
  6
CONTINUOUS
 10
11.00045
 20
54.79856
  0
VERTEX
  8
PTS2DXF
  6
CONTINUOUS
 10
11.00944
 20
54.80145
  0
VERTEX
  8
PTS2DXF
  6
CONTINUOUS
 10
11.0155
 20
54.80674
  0
VERTEX
  8
PTS2DXF
  6
CONTINUOUS
 10
11.0158
 20
54.8097
  0
VERTEX
  8
PTS2DXF
  6
CONTINUOUS
 10
11.0046
 20
54.81625
  0
VERTEX
  8
PTS2DXF
  6
CONTINUOUS
 10
10.99161
 20
54.81823
  0
VERTEX
  8
PTS2DXF
  6
CONTINUOUS
 10
10.98782
 20
54.82168
  0
VERTEX
  8
PTS2DXF
  6
CONTINUOUS
 10
11.00578
 20
54.8201
  0
VERTEX
  8
PTS2DXF
  6
CONTINUOUS
 10
11.01916
 20
54.81553
  0
VERTEX
  8
PTS2DXF
  6
CONTINUOUS
 10
11.02187
 20
54.81635
  0
VERTEX
  8
PTS2DXF
  6
CONTINUOUS
 10
11.02324
 20
54.81676
  0
VERTEX
  8
PTS2DXF
  6
CONTINUOUS
 10
11.02866
 20
54.81567
  0
VERTEX
  8
PTS2DXF
  6
CONTINUOUS
 10
11.03374
 20
54.81115
  0
VERTEX
  8
PTS2DXF
  6
CONTINUOUS
 10
11.04041
 20
54.8107
  0
VERTEX
  8
PTS2DXF
  6
CONTINUOUS
 10
11.04412
 20
54.81217
  0
VERTEX
  8
PTS2DXF
  6
CONTINUOUS
 10
11.04949
 20
54.79895
  0
VERTEX
  8
PTS2DXF
  6
CONTINUOUS
 10
11.07412
 20
54.80017
  0
VERTEX
  8
PTS2DXF
  6
CONTINUOUS
 10
11.08045
 20
54.80407
  0
VERTEX
  8
PTS2DXF
  6
CONTINUOUS
 10
11.08242
 20
54.80788
  0
VERTEX
  8
PTS2DXF
  6
CONTINUOUS
 10
11.0713
 20
54.81513
  0
VERTEX
  8
PTS2DXF
  6
CONTINUOUS
 10
11.07102
 20
54.82017
  0
VERTEX
  8
PTS2DXF
  6
CONTINUOUS
 10
11.07596
 20
54.82206
  0
VERTEX
  8
PTS2DXF
  6
CONTINUOUS
 10
11.0771
 20
54.81767
  0
VERTEX
  8
PTS2DXF
  6
CONTINUOUS
 10
11.08256
 20
54.81703
  0
VERTEX
  8
PTS2DXF
  6
CONTINUOUS
 10
11.08717
 20
54.81184
  0
VERTEX
  8
PTS2DXF
  6
CONTINUOUS
 10
11.09315
 20
54.81232
  0
VERTEX
  8
PTS2DXF
  6
CONTINUOUS
 10
11.10183
 20
54.81979
  0
VERTEX
  8
PTS2DXF
  6
CONTINUOUS
 10
11.11105
 20
54.82108
  0
VERTEX
  8
PTS2DXF
  6
CONTINUOUS
 10
11.11586
 20
54.82548
  0
VERTEX
  8
PTS2DXF
  6
CONTINUOUS
 10
11.11468
 20
54.82941
  0
VERTEX
  8
PTS2DXF
  6
CONTINUOUS
 10
11.11679
 20
54.83071
  0
VERTEX
  8
PTS2DXF
  6
CONTINUOUS
 10
11.12493
 20
54.82906
  0
VERTEX
  8
PTS2DXF
  6
CONTINUOUS
 10
11.12901
 20
54.83028
  0
VERTEX
  8
PTS2DXF
  6
CONTINUOUS
 10
11.13497
 20
54.82826
  0
VERTEX
  8
PTS2DXF
  6
CONTINUOUS
 10
11.14849
 20
54.82366
  0
VERTEX
  8
PTS2DXF
  6
CONTINUOUS
 10
11.15205
 20
54.81988
  0
VERTEX
  8
PTS2DXF
  6
CONTINUOUS
 10
11.14808
 20
54.8159
  0
VERTEX
  8
PTS2DXF
  6
CONTINUOUS
 10
11.148
 20
54.81133
  0
VERTEX
  8
PTS2DXF
  6
CONTINUOUS
 10
11.15406
 20
54.80883
  0
VERTEX
  8
PTS2DXF
  6
CONTINUOUS
 10
11.15985
 20
54.81524
  0
VERTEX
  8
PTS2DXF
  6
CONTINUOUS
 10
11.15895
 20
54.81781
  0
SEQEND
  0
ENDSEC
  0
EOF
